Song name
# A B C D E F G H I J K L M N O P Q R S T U V W X Y Z

Black Veil Brides - The Morticians Daughter tab

Personally, I'm not a big fan of BVB but most of the tabs don't have the intro right, so 
I guess I should put it here.The tuning is standard and it's easy chord progression for 
the most part. I did the intro by sound though, so sorry if it's wrong. The chords you use are:
G:        Em:       C:        D:
e|-3-|    e|-0-|    e|-0-|    e|-2-|
B|-0-|    B|-0-|    B|-1-|    B|-3-|
G|-0-|    G|-0-|    G|-0-|    G|-2-|
D|-0-|    D|-2-|    D|-2-|    D|-0-|
A|-2-|    A|-2-|    A|-3-|    A|-X-|
E|-3-|    E|-0-|    E|-X-|    E|-X-|  ... X means to not strum that string.

The strum pattern for the intro is DOWN DOWN UP DOWN[apart from the three strums]

INTRO:
e|----------3-3-3-3---------0-0-0-0----|
B|-----0----0-0-0-0----0----0-0-0-0----|
G|-------0--0-0-0-0------0--0-0-0-0----|
D|---0------0-0-0-0--2------2-2-2-2----|
A|----------2-2-2-2---------2-2-2-2----|
E|----------3-3-3-3---------0-0-0-0----|

e|----------0-0-0-0---------3-3-3-3----|
B|----------1-1-1-1----2----2-2-2-2----|
G|-----0----0-0-0-0------3--3-3-3-3----|
D|-------2--2-2-2-2--0------0-0-0-0----|
A|---3------3-3-3-3---------X-X-X-X----|
E|----------X-X-X-X---------X-X-X-X----|

REST OF THE SONG:
The strum pattern for the rest is DOWN DOWN UP DOWN UP DOWN UP DOWN once for each chord.

 G:                   Em:
e|-1-1-1-1-1-1-1-1-|  e|-0-0-0-0-0-0-0-0-|
B|-0-0-0-0-0-0-0-0-|  B|-0-0-0-0-0-0-0-0-|
G|-0-0-0-0-0-0-0-0-|  G|-0-0-0-0-0-0-0-0-|
D|-0-0-0-0-0-0-0-0-|  D|-2-2-2-2-2-2-2-2-|
A|-2-2-2-2-2-2-2-2-|  A|-2-2-2-2-2-2-2-2-|
E|-3-3-3-3-3-3-3-3-|  E|-0-0-0-0-0-0-0-0-|

  C:                   D:
e|-0-0-0-0-0-0-0-0-|  e|-3-3-3-3-3-3-3-3-|
B|-1-1-1-1-1-1-1-1-|  B|-2-2-2-2-2-2-2-2-|
G|-0-0-0-0-0-0-0-0-|  G|-3-3-3-3-3-3-3-3-|
D|-2-2-2-2-2-2-2-2-|  D|-0-0-0-0-0-0-0-0-|
A|-3-3-3-3-3-3-3-3-|  A|-X-X-X-X-X-X-X-X-|
E|-X-X-X-X-X-X-X-X-|  E|-X-X-X-X-X-X-X-X-|

The rest of the song is the same, so just repeat.
Hope this helped people with the intro.
P.S.: IT'S A PUPPY! -->  <("x")>
Tap to rate this tab
 
# A B C D E F G H I J K L M N O P Q R S T U V W X Y Z