Song name
# A B C D E F G H I J K L M N O P Q R S T U V W X Y Z

Black Veil Brides - Perfect Weapon tab

Song: Perfect Weapon
Artist: Black Veil Brides
Album: We Stitc These Wounds 
(Stand By Records)

Tuning is in Drop C# 
Basically tune to drop D, then take all strings down a half step.
(C#G#C#F#A#D#)
This is also concidered Db tuning.
(DbAbDbGbBbEb)



   Guitar one (Jake Pitts):
D#|-------------------------------|------------------------------|
A#|-------------------------------|------------------------------|
F#|-------------------------------|------------------------------|
C#|-----7-------------2--5-5-5-3--|------7------------2--5-5-5-5-|
G#|---------3h5-------------------|----------3h5---------3-3-3-3-|
C#|-0-0---0-----0-3-0-------------|--0-0---0-----0-3-0-----------|
  | . .   .     .   .                . .   .     .   .
  |
  | Guitar Two (Jinxx):
D#|-------------------------------|------------------------------|
A#|-------------------------------|------------------------------|
F#|-------------------------------|------------------------------|
C#|-------------------------------|------------------------------|
G#|-0~~~~~~~~~~~~~~~~~~~~~~~~~~~~~|~~~~~~~~~~~~~~~~~~~~~~~~~~~~~~|
C#|-0~~~~~~~~~~~~~~~~~~~~~~~~~~~~~|~~~~~~~~~~~~~~~~~~~~~~~~~~~~~~|


D#|-----------------------------------|-------------------------------|
A#|-----------------------------------|-------------------------------|
F#|-----------------------------------|-------------------------------|
C#|-----7-------------7---10-10-10p8--|------7------------------------|
G#|---------3/5-----------------------|----------3/5------------5/8-7-|
C#|-8-8---0-----0-8-8---8-------------|--8-8---0-----8-8-7-5-3-5~-----|
  | . .         . . .   .                . .         . .     
  |
  |
D#|---------------------------------|-------------------------------|
A#|---------------------------------|-------------------------------|
F#|---------------------------------|-------------------------------|
C#|---------------------------------|-------------------------------|
G#|-8~~~~~~~~~~~~~~~~~~~~~~~~~~~~~~~|~~~~~~~~~~~~~~~~~~~~~~~~~~~~~~~|
C#|-8~~~~~~~~~~~~~~~~~~~~~~~~~~~~~~~|~~~~~~~~~~~~~~~~~~~~~~~~~~~~~~~|



D#|-------------------------------|------------------------------|
A#|-------------------------------|------------------------------|
F#|-------------------------------|------------------------------|
C#|-----7-------------2--5-5-5-3--|------7------------2--5-5-5-5-|
G#|---------3h5-------------------|----------3h5---------3-3-3-3-|
C#|-0-0---0-----0-3-0-------------|--0-0---0-----0-3-0-----------|
  | . .   .     .   .                . .   .     .   .
  |
  |
D#|-------------------------------|------------------------------|
A#|-------------------------------|------------------------------|
F#|---------------------3-3-3p2---|------------------------------|
C#|-------------------2-----------|--------------------2-5-5-5-5-|
G#|-----8---7h8-------------------|------8---7h8---------3-3-3-3-|
C#|-0-0---0-----0-3-0-------------|--0-0---0-----0-3-0-----------|
    . .   .     .   .                . .   .     .   .


D#|-----------------------------------|-------------------------------|
A#|-----------------------------------|-------------------------------|
F#|-----------------------------------|-------------------------------|
C#|-----7-------------7---10-10-10p8--|------7------------------------|
G#|---------3/5-----------------------|----------3/5------------5/8-7-|
C#|-8-8---0-----0-8-8---8-------------|--8-8---0-----8-8-7-5-3-5~-----|
  | . .         . . .   .                . .         . .
  |
  |
D#|-----------------------------------|--------------------------------|
A#|-----------------------------------|--------------------------------|
F#|-----------------------------------|--------------------------------|
C#|-----------------------------------|--------------------------------|
G#|-----8---7h8-------7---10-10-10p8--|------8---7h8------------8/10-8-|
C#|-8-8---8-----8-8-8---8-------------|--8-8---8-----8-8-7-5-3-5~------|
    . .   .     . . .   .                . .   .     . .  


D#|-------------------------------|------------------------------|
A#|-------------------------------|------------------------------|
F#|-------------------------------|------------------------------|
C#|-----7-------------2--5-5-5-3--|------7------------2--5-5-5-5-|
G#|---------3h5-------------------|----------3h5---------3-3-3-3-|
C#|-0-0---0-----0-3-0-------------|--0-0---0-----0-3-0-----------|
  | . .   .     .   .                . .   .     .   .
  |
  |
D#|-------------------------------|------------------------------|
A#|-------------------------------|------------------------------|
F#|---------------------3-3-3p2---|------------------------------|
C#|-------------------2-----------|--------------------2-5-5-5-5-|
G#|-----8---7h8-------------------|------8---7h8---------3-3-3-3-|
C#|-0-0---0-----0-3-0-------------|--0-0---0-----0-3-0-----------|
    . .   .     .   .                . .   .     .   .


D#|-----------------------------------|-------------------------------|
A#|-----------------------------------|-------------------------------|
F#|-----------------------------------|-------------------------------|
C#|-----7-------------7---10-10-10p8--|------7------------------------|
G#|---------3/5-----------------------|----------3/5------------5/8-7-|
C#|-8-8---0-----0-8-8---8-------------|--8-8---0-----8-8-7-5-3-5~-----|
  | . .         . . .   .                . .         . .
  |
  |
D#|-----------------------------------|--------------------------------|
A#|-----------------------------------|--------------------------------|
F#|-----------------------------------|--------------------------------|
C#|-----------------------------------|--------------------------------|
G#|-----8---7h8-------7---10-10-10p8--|------8---7h8------------8/10-8-|
C#|-8-8---8-----8-8-8---8-------------|--8-8---8-----8-8-7-5-3-5~------|
    . .   .     . . .   .                . .   .     . .  


There's the intro. I guarantee it's 100% perfect. Comment, rate, add. Thanks. 
Tap to rate this tab
 
# A B C D E F G H I J K L M N O P Q R S T U V W X Y Z