Black Veil Brides - We Stitch These Wounds tab

Intro
~=bend
*=pause for half a second


D]---------------------[
A]---------------------[
F]---------------------[
C]-4--X-X--4-----------[
G]-4--X-X--4-----------[
C]-4--X-X--4-----------[
     PM PM

D]-------------------[
A]-------------------[
F]-------------------[
C]----7--6--2--------[
G]-------------------[
C]-------------------[

D]---------------------[
A]---------------------[
F]---------------------[
C]-4--X-X--4-----------[
G]-4--X-X--4-----------[
C]-4--X-X--4-----------[
     PM PM


D]------------------------[
A]------------------------[
F]------------------------[
C]--------7--9---6--------[
G]------------------------[
C]------------------------[
     PM PM
repeat all this then:

D]------------------------[
A]------------------------[
F]------------------------[
C]--7-6----7-6-4----------[
G]-----7-9----------------[
C]------------------------[

D]---------------------------[
A]---------------------------[
F]---------------------------[
C]--7-6----6-7-6-7-----------[
G]-----7-9-------------------[
C]---------------------------[
     
     

D]----------------------------------[
A]------------------------------19~-[
F]----------------------------------[
C]--7-6----7-6-4--------------------[
G]-----7-9--------------------------[
C]----------------------------------[


The whole song is this riff:

D]------------------------[
A]------------------------[
F]------------------------[
C]--7-6----7-6-4----------[
G]-----7-9----------------[
C]------------------------[

D]---------------------------[
A]---------------------------[
F]---------------------------[
C]--7-6----6-7-6-7/9---------[
G]-----7-9-------------------[
C]---------------------------[
     
When you slide to 9 its every two times this riff plays

D]----------------------[
A]----------------------[
F]----------------------[
C]--7-6----7-6-4--------[
G]-----7-9--------------[
C]----------------------[


Chorus:


D]---------------------------------------------------2-2-*-2-*-2-2-*-2------[
A]---------------------------------------------------2-2-*-2-*-2-2-*-2------[
F]---4-4-*-4-4-4----7-7-*-7--------------------------2-2-*-2-*-2-2-*-2------[
C]---4-4-*-4-4-4----7-7-*-7-------11-11-11-9-9-9-----2-2-*-2-*-2-2-*-2------[
G]---4-4-*-4-4-4----7-7-*-7--------------------------2-2-*-2-*-2-2-*-2------[
C]---4-4-*-4-4-4----7-7-*-7--------------------------2-2-*-2-*-2-2-*-2------[
     

Then This Riff again

D]------------------------[
A]------------------------[
F]------------------------[
C]--7-6----7-6-4----------[
G]-----7-9----------------[
C]------------------------[

D]---------------------------[
A]---------------------------[
F]---------------------------[
C]--7-6----6-7-6-7/9---------[
G]-----7-9-------------------[
C]---------------------------[

Solo

D]------------------------------------[
A]------------------------------------[
F]-8-9-8-*-8-9-8-9*-11-9-8-9-8--------[
C]------------------------------------[
G]------------------------------------[
C]------------------------------------[

D]---------------------------------------------[
A]---------------------------------------------[
F]-13-14-13-*-13-14-13-14-*-16-14-13-14-13-----[
C]---------------------------------------------[
G]---------------------------------------------[
C]---------------------------------------------[
     that little riff after solo
D]-----------------------------------------[
A]-----------------------------------------[
F]-----------------------------------------[
C]-4-4-4-4-6-6-6-6-7-7-7-7-12-10-9-10-9----[
G]-----------------------------------------[
C]-----------------------------------------[
     

Repeat the Chorus and That Riff and your done!



D]---------------------------------------------------2-2-*-2-*-2-2-*-2------[
A]---------------------------------------------------2-2-*-2-*-2-2-*-2------[
F]---4-4-*-4-4-4----7-7-*-7--------------------------2-2-*-2-*-2-2-*-2------[
C]---4-4-*-4-4-4----7-7-*-7-------11-11-11-9-9-9-----2-2-*-2-*-2-2-*-2------[
G]---4-4-*-4-4-4----7-7-*-7--------------------------2-2-*-2-*-2-2-*-2------[
C]---4-4-*-4-4-4----7-7-*-7--------------------------2-2-*-2-*-2-2-*-2------[
     



D]------------------------[
A]------------------------[
F]------------------------[
C]--7-6----7-6-4----------[
G]-----7-9----------------[
C]------------------------[

D]---------------------------[
A]---------------------------[
F]---------------------------[
C]--7-6----6-7-6-7/9---------[
G]-----7-9-------------------[
C]---------------------------[


End with

D]------------]
A]------------]
F]---4-4-*-4-4]
C]---4-4-*-4-4]
G]---4-4-*-4-4]         
C]---4-4-*-4-4]
Tap to rate this tab
 
# A B C D E F G H I J K L M N O P Q R S T U V W X Y Z