Song name
# A B C D E F G H I J K L M N O P Q R S T U V W X Y Z

Black Veil Brides - Fallen Angels tab

hey this is my solo: again im deanil vincent please subscribe at my youtube account
http://www.youtube.com/user/deanileifronzzX?feature=mhee thanks alot, and facebook account
deanilvincent_13@yahoo.com! God bless all, im here to give u a new tabs,im not that kind 
of guitarist that will keep my own tabs. I have to share it that way God shared to me! GOD
BLESS US!! PROUDLY PILIPINO!!



|-----------------------------------------------------------------------------|
|---------14----14^-12b13*-13^--11------10/12-10*(pull up to make nc sound---|
|-----------------------------------------------------------------------------|
|--12-12-----12---------------------------------------------------------------|
|-----------------------------------------------------------------------------|
|-----------------------------------------------------------------------------|

|----------------------------------------------------------------------------------|
|--10/12-10-------------14-----14^-1213*13^--13(play this while pulling up--------|
|-----------12---------------------------------------------------------------------|
|----------------12--12----12------------------------------------------------------|
|----------------------------------------------------------------------------------|
|----------------------------------------------------------------------------------|

|----------------------------17----15b---------------------------------------------|
|----------------------------------------------------------------------------------|
|----------------------------------------------------------------------------------|
|------------14---15--17-----------------------------------------------------------|
|-12--14--15-----------------------------------------------------------------------|
|----------------------------------------------------------------------------------|

|-----11-13-15-11-13-15------------------------|
|-----------------------13-15-16-1315-16-------|
|----------------------------------------------|
|----------------------------------------------|
|----------------------------------------------|
|----------------------------------------------|

|-10-11-13-10-11-13---------------------8-10-11-8-10-11--------------------|
|-------------------11-13-15--11--13-15-----------------10-11-13-10-11-13--|
|--------------------------------------------------------------------------|
|--------------------------------------------------------------------------|
|--------------------------------------------------------------------------|
|--------------------------------------------------------------------------|

|--------------------------------------------------------------------------|
|-13-11-10-11-10---------------------------15------------------------------|
|----------------12--14--12-10---------------------------------------------|
|-------------------------------12^*---12^----12---------------------------|
|--------------------------------------------------------------------------|
|--------------------------------------------------------------------------|

|--------------------------------------------------------------------------|
|--15--20-20-20-20/15-15-1515/-16-16-16-16--18-18-18--18-18---------------|
|--------------------------------------------------------------------------|
|--------------------------------------------------------------------------|
|--------------------------------------------------------------------------|
|--------------------------------------------------------------------------|

|--------------------------------------------------------------------------|
|---18-13-13-13-13-15-15-15-1511^^^^^^^^^^^^^-----------------------------|
|--------------------------------------------------------------------------|
|--------------------------------------------------------------------------|
|--------------------------------------------------------------------------|
|--------------------------------------------------------------------------|

|--------------------------------------------------------------------------|
|--------------------------------------------------------------------------|
|--------------------------------------------------------------------------|
|---HAMMER ONNNNNNNNNNN----------------------------------------------------|
|--------------------------------------------------------------------------|
|--------------------------------------------------------------------------|

thanks alot and God bless, HAve fun!

^_^ we can be friends!
Tap to rate this tab
 
# A B C D E F G H I J K L M N O P Q R S T U V W X Y Z