Song name
# A B C D E F G H I J K L M N O P Q R S T U V W X Y Z

Black Veil Brides - Rebel Love Song tab

hey guys im here again(deanil vincente) to give u the latest tabs! ---REBEL love song!by BvB
---:D add me on facebook (deanilvincent_13@yahoo.com) and please subscribe on my youtube 
account to get some latest news about new tabs!
          anyway,actually i have the whole tabs of this song but i only made  the intro 
for you! please you'd better to add me and subscribe in my acc. to ask me whether i'll 
post! i have -Intro
                                 -chorus
                                 -break
                                 -solo
                                 -ending
    ---now im making the savior,the legacy,etc.:) God bless us __'''Proudly PINOY(philippines)..

Intro:



|----------------------------------------------------------------------------------|
|----------------------------------------------------------------------------------|
|----------------------------------------------------------------------------------|
|--6--4-4-4-4-4--------------------------------------------------------------------|
|--4--2-2-2-2-2-----4---2----5---2--4--2---0--2------------------------------------|
|----------------------------------------------------------------------------------|

|------------------------------------------------------------------------------|
|------------------------------------------------------------------------------|
|--4--4-4----------------------------------------------------------------------|
|--4--4-4-----------------------5-5-5-5-5-5---2-2-2--2--2----------------------|
|--2--2-2----5-5-5-5-5-5---2-2-2--2--2----------------------|
|-------------------------------5-5-5-5-5-5---2-2-2--2--2----------------------|

|------------------------------------------------------------------------------|
|------------------------------------------------------------------------------|
|--4--4-4----------------------------------------------------------------------|
|--4--4-4-----------------------5-5-5-5-5-5---2-2-2--2--2----------------------|
|--2--2-2----5-5-5-5-5-5---2-2-2--2--2----------------------|
|-------------------------------5-5-5-5-5-5---2-2-2--2--2----------------------|


|------------------------------------------------------------------------------|
|---10--12--12--12--12-12----15--15--15--15--15-15--15--15---------------------|
|------------------------------------------------------------------------------|
|---7----9---9--9---9--9-----12--12--12--12--12-12--12--12---------------------|
|------------------------------------------------------------------------------|
|------------------------------------------------------------------------------|

|---------------------------------------------------------------------------------|
|--14--14--14- 14---14------10--10-10-10-10-10-10-10------------------------------|
|---------------------------------------------------------------------------------|
|--11--11--11--11--11--------7--7--7--7--7--7--7--7-------------------------------|
|---------------------------------------------------------------------------------|
|---------------------------------------------------------------------------------|

|--------------------------------------------------------------------------------|
|--14---15---15^------15-------14---15--1412^-----------------------------------|
|-------------------------------------------------11-----------------------------|
|--------------------------------------------------------------------------------|
|--------------------------------------------------------------------------------|
|--------------------------------------------------------------------------------|

|--14--10------------------------------------------------------------------------|
|---------12---------------------------------------------------------------------|
|------------11------------------------------------------------------------------|
|---------------12--11-----------------------------------------------------------|
|-----------------------109^----------------------------------------------------|
|--------------------------------------------------------------------------------|
                                   TO BE CONTINUED...

                                    ...(AST founder Deanil vincente)
Tap to rate this tab
 
# A B C D E F G H I J K L M N O P Q R S T U V W X Y Z