Song name
# A B C D E F G H I J K L M N O P Q R S T U V W X Y Z

Black Veil Brides - Perfect Weapon tab

-------------------------------------------------------------------------------|
-------------------------------------------------------------------------------|
-------------------------------------------------------------------------------|
----7---------2------------7---------2---5555----7-----------------------------|
--------3h5-------5553---------3h5-------3333------------------10-10-10-8------|
-00---0-----3---0-------00---0-----3---0------88---8-10/12-8-7-----------------|

---------------------------|
---------------------------|
---------------------------|   JUST REPEAT THIS 2X AND THAT'S IT
----7----------------------|
-----------------------5-3-|
-88---8-10/12-8-7--3-5-----|
Tap to rate this tab
# A B C D E F G H I J K L M N O P Q R S T U V W X Y Z