Song name
# A B C D E F G H I J K L M N O P Q R S T U V W X Y Z

Black Veil Brides - Knives And Pens tab

-----------------------------------------------------------------------------
			     Knives And Pens - Black Veil Brides
-----------------------------------------------------------------------------
Tabbed by: CasterOfStars

Tuning: Drop D

e|----------------------------------------------------------------------------|
B|----------------------------------------------------------------------------|
G|---7-10-9-7-10-9-7-10-9-7-10-9--9-12-11-9-12-11-9-12-11-9-12-11--10-13-12---|
D|----------------------------------------------------------------------------|
A|----------------------------------------------------------------------------|
E|----------------------------------------------------------------------------|

e|--------------------------------------------------------------------------|
B|--------------------------------------------------------------------------|
G|-10-13-12-10-13-12-10-13-12--12-15-14-12-15-14-12-15-14-12-15-14----------|
D|--------------------------------------------------------------------------|
A|--------------------------------------------------------------------------|
E|--------------------------------------------------------------------------|

e|----17-18-17-------------------------------17-18-17-------------------------|
B|-18----------18-------------------------18----------18----------------------|
G|----------------17-------------------------------------17-------------------|
D|-------------------19-17-19-17---17-----------------------19-17-19-17--17---|
A|-------------------------------20---20--------------------------------20-20-|
E|----------------------------------------------------------------------------|

e|-20-17---------------------------------------------------------------------|
B|-------18------------------------------------------------------------------|
G|----------17---17----------------------------------------------------------|
D|-------------20---20-19-20-19-17-20-19-------------------------------------|
A|---------------------------------------------------------------------------|
E|---------------------------------------------------------------------------|
Tap to rate this tab
# A B C D E F G H I J K L M N O P Q R S T U V W X Y Z