Song name
# A B C D E F G H I J K L M N O P Q R S T U V W X Y Z

Black Veil Brides - God Bless You tab

-------------------------------------------------------------------------------
			     God Bless You - Black Veil Brides
-------------------------------------------------------------------------------
Tabbed by: Guns N' CrüeSWE
Email:None of yer business...

Tuning:DADGBe

Intro Riff
e|-----------------------------------------------------------------------------|
B|-----------------------------------------------------------------------------|
G|-----------------------------------------------------------------------------|
D|-----3---3----6-6-6-6-5-5-5-5------------------------------------------------|
A|-----3---3----6-6-6-6-5-5-5-5------------------------------------------------|
D|-0-0-3-0-3----6-6-6-6-5-5-5-5------------------------------------------------|
Intro Solo
e|------------------------------------------------------------------------------|
B|-9-----9-----8-----8-----5----------------------------------------------------|
G|----9-----------8-------------------------------------------------------------|
D|------------------------------------------------------------------------------|
A|------------------------------------------------------------------------------|
D|------------------------------------------------------------------------------|
Verse
e|--------------------------------------------------------------------------------------|
B|--------------------------------------------------------------------------------------|
G|--------------------------------------------------------------------------------------|
D|--------------------------------------------------------------------------------------|
A|--------------------------------------------------------------------------------------|
D|-0-0-3bp0--5bp0--3bp0---6bp0---5bp0---3bp0--------------------------------------------|
Chorus
e|-----------------------------------------------------------------------------|
B|-----------------------------------------------------------------------------|
G|-----------------------------------------------------------------------------|
D|----9-9-9-9-8-8-8-8--9-9---------3---3--3------------------------------------|
A|----7-7-7-7-6-6-6-6--7-7---------3---3--3------------------------------------|
D|------------------------------0--3---3--3------------------------------------|

e|---------------------------------------------------------------------------|
B|----------------17pb-----------------17b-----------------------------------|
G|-----10\14--16-------------10\14-------------------------------------------|
D|---------------------------------------------------------------------------|
A|---------------------------------------------------------------------------|
D|---------------------------------------------------------------------------|
And for the rest of the solo you tap on the frets 14,16 and 21 on the B string... And 
the end of the solo is easy... fully bend fret 22 on the B string.

************************************

| /   slide up
| \   slide down
| h   hammer-on
| p   pull-off
| ~   vibrato
| +   harmonic
| x   Mute note
| b   Bend
| pb  Pre-bend
| br  Bend release
| pbr Pre-bend release
| brb Bend release bend

************************************

Guns N' CrüeSWE 15/09/11
Tap to rate this tab
 
# A B C D E F G H I J K L M N O P Q R S T U V W X Y Z