Song name
# A B C D E F G H I J K L M N O P Q R S T U V W X Y Z

Black Veil Brides - Perfect Weapon tab

Tabbed by: Dertysouthbwoy


Note* Tabbed directly from Black Veil Brides Lesson in guitarworld. As played by Jake.
 
This is 100% correct tab.

Tuning: Drop C#

D#|-15p13----13-------------------------------------------------------------------|
A#|-------15----15p13--15p13-----13-----------------------------------------------|
F#|---------------------------14----14p12-14p12----12-----------------------------|
C#|---------------------------------------------15----15p12--15p12---12-----------|
G#|----------------------------------------------------------------15----15p12~~~-|
C#|-------------------------------------------------------------------------------|

D#|-------------------------------------------------------------------------------|
A#|-----------------------------------------10------------------------------------|
F#|--------------------10-----10h12---10h12-----12p10--12p10------10-P.H----------|
C#|-------10h12--10h12----12------------------------------------12----------------|
G#|-10h12-------------------------------------------------------------------------|
C#|-------------------------------------------------------------------------------|

               Tapping Part
D#|-------------------------------------------------------------------------------|
A#|--T18--15p13h15--2x-T18-T18-15p13h15-5x-T18--15p13h15---2x-T18-T18-15p13h15----|
F#|-------------------------------------------------------------------------------|
C#|-------------------------------------------------------------------------------|
G#|-------------------------------------------------------------------------------|
C#|-------------------------------------------------------------------------------|

   Tremolo Part
D#|-12121212--13131313--15151515--13131313-15151515--15b17-15b17-15b17r15p13------|
A#|--------------------------------------------------------------------------15~~~|
F#|-------------------------------------------------------------------------------|
C#|-------------------------------------------------------------------------------|
G#|-------------------------------------------------------------------------------|
C#|-------------------------------------------------------------------------------|

D#|-13h15p13h15p13---13-------------------------------------------------------------------------|
A#|----------------17--17--15h17p15--13h15p13---13----------------------------------------------|
F#|-------------------------------------------15--15--14h15p14--12h14p12----12------------------|
C#|----------------------------------------------------------------------15---15--14h15p14--12~~|
G#|---------------------------------------------------------------------------------------------|
C#|---------------------------------------------------------------------------------------------|

D#|----------------------------------------------------------------------10---------10-----|
A#|--------------------------------------------------------------------------10-13--13b~~~-|
F#|--s/12-12-12b13~~~---7h9p7h9p7h9---9h10p9h10p9h10---10h12p10h12p10h12-------------------|
C#|----------------------------------------------------------------------------------------|
G#|----------------------------------------------------------------------------------------|
C#|----------------------------------------------------------------------------------------|


Please Rate Thanks. 
************************************

| /   slide up
| \   slide down
| h   hammer-on
| p   pull-off
| ~   vibrato
| +   harmonic
| x   Mute note
| b   Bend
| pb  Pre-bend
| br  Bend release
| pbr Pre-bend release
| brb Bend release bend

************************************
Tap to rate this tab
 
# A B C D E F G H I J K L M N O P Q R S T U V W X Y Z