Song name
# A B C D E F G H I J K L M N O P Q R S T U V W X Y Z

Black Veil Brides - God Bless You tab

"God Bless You" -Black Veil Brides (Intro)

/  Slide up
\  Slide down
h  Hammer-on
Pm Palm-mute



D#-----------------------------------------------------------------|
A#-----------------------------------------------------------------|
F#-----------------------------------------------------------------|
C#--0-0-3-0--0-3-0--6-6-5-3-5-5-3-0---0-3-0-3-0--0-6-6-5-3-5-5-3-0-|
G#--0-0-3-0--0-3-0--6-6-5-3-5-5-3-0---0-3-0-3-0--0-6-6-5-3-5-5-3-0-|
C#--0-0-3-0--0-3-0--6-6-5-3-5-5-3-0---0-3-0-3-0--0-6-6-5-3-5-5-3-0-|

D#-----------------------------------------------------------------|
A#--/10----10----8-----8----6----------10-8----8-------------------|
F#------10----------9----------7\-----------10---10-9-10-9---------|
C#---------------------------------------------------------10h12---|
G#-----------------------------------------------------------------|
C#-----------------------------------------------------------------|
                                      Pm...........
Tap to rate this tab
# A B C D E F G H I J K L M N O P Q R S T U V W X Y Z