Song name
# A B C D E F G H I J K L M N O P Q R S T U V W X Y Z

Black Veil Brides - God Bless You tab

DROP C# TUNING

|-----------------------------------------------------------------------------|
|-----------------------------------------------------------------------------|
|-----------------------------------------------------------------------------|
|-----------------------------------------------------------------------------|
|0--3--0----0--3--0--6--6--5--3--5--3--3--0----0-3-0-3-0---0-6-6-------~3*----|
|0--3--0----0--3--0--6--6--5--3--5--3--3--0----0-3-0-3-0---0-6-6-5-3-5--------|

|----------------------------------------------------------------------------|
|-------------------------10-------------------------------------------------|
|-/14--10/14-13-9/12-10*~------12-10-12-10----10-----------------------------|
|-----------------------------------------12----12-10-12-12------------------|
|----------------------------------------------------------------------------|
|----------------------------------------------------------------------------|
************************************

| /   slide up
| \   slide down
| h   hammer-on
| p   pull-off
| ~   vibrato
| *   harmonic
| x   Mute note
| b   Bend
Tap to rate this tab
 
# A B C D E F G H I J K L M N O P Q R S T U V W X Y Z