Song name
# A B C D E F G H I J K L M N O P Q R S T U V W X Y Z

Black Veil Brides - Rebel Love Song tab

Pretty sure the tabs are 100% correct, but let me know if there are any mistakes :P Enjoy!

h = hammer on
p = pull off
b = bend
* (under line) = palm mute
v = vibrato
/ = slide up to
\ = slide down to


|------------------------------------|
|------------------------------------|
|------------------------------------|
|--6-4-4-4-4-4-4-4-------------------|
|--4-2-2-2-2-2-2-2--4-2-5-2-4-2-0-2--|
|------------------------------------|


|---------------------------------------------------------------------|
|---------------------------------------------------------------------|
|--4-4-4-4-4-4-4-4--4-4-4-4-4-4-4-4-----------------------------------|
|--4-4-4-4-4-4-4-4--4-4-4-4-4-4-4-4--5-5-5-5-5-5-5-5--2-2-2-2-2-2-2-2-|
|--2-2-2-2-2-2-2-2--2-2-2-2-2-2-2-2--5-5-5-5-5-5-5-5--2-2-2-2-2-2-2-2-|  x2
|------------------------------------5-5-5-5-5-5-5-5--2-2-2-2-2-2-2-2-|


|------------------------------------------------------|
|--10-12-12-12-12-12-12-12--15-15-15-15-15-15-15-15----|
|------------------------------------------------------|
|--7--9--9--9--9--9--9--9---12-12-12-12-12-12-12-12----|
|------------------------------------------------------|
|------------------------------------------------------|

 -------------------------------------------------------|
 --14-14-14-14-14-14-14-14--10-10-10-10-10-10-10-10-----|
 -------------------------------------------------------|
 --11-11-11-11-11-11-11-11---7--7--7--7--7--7--7--7-----|
 -------------------------------------------------------|
 -------------------------------------------------------|


|------------------------------------------------|
|--14---15---15b---15-----14--15--14--12---------|
|------------------------------------------11v---|
|------------------------------------------------|
|------------------------------------------------|
|------------------------------------------------|

 --14--10-------------------------|
 ----------12---------------------|
 --------------11-----------------|
 ------------------12--11---------|
 --------------------------10--9--|
 ---------------------------------|


|----------------------------------------------------------------|
|----------------------------------------------------------------|
|----------------------------------------------------------------|
|----------------------------------------------------------------|
|--2-2-5-2-4-2-0-2--2-5-2-4-2-0-2---2-5-2-4-2-0---2-5-2---1-4-1--|
|---------------------------------5-------------2-------5--------|

 ---------------------------------------------------------------------|
 ---------------------------------------------------------------------|
 ---------------------------------------------------------------------|
 ---------------------------------------------------------------------|
 --2-2-5-2-4-2-0-2--2-5-2-4-2-0-2------2----2----2----------1-----1/4-| x2
 ----------------------------------5-5----5----5----5---4-4----4------|


|-------14---12--14---------------------------------|
|--12-----------------14---12-12-15-12-14-12-----12-|
|---------------------------------------------14----|
|---------------------------------------------------|  x4
|---------------------------------------------------|
|---------------------------------------------------|


|-----------------------------------------------------|
|--14-10----------10-14-10--14-10-15-10-14-10-----10--|
|--------11-9-11-------------------------------11-----|
|-----------------------------------------------------|  x3
|-----------------------------------------------------|
|-----------------------------------------------------|


|------------------------10--14-10---------------------|
|--14-10----------10-14-------------14-10-14-10--------|
|--------11-9-11---------------------------------11-9--|
|------------------------------------------------------|
|------------------------------------------------------|
|------------------------------------------------------|


|-----------------------------------------------------|
|--14-10----------10-14-10--14-10-15-10-14-10-----10--|
|--------11-9-11-------------------------------11-----|
|-----------------------------------------------------|  x2
|-----------------------------------------------------|
|-----------------------------------------------------|


|-------------------------10--14-10-------------------14--|
|--14-10-----------10-14-------------12-----12-14-15------|
|---------11-9-11------------------------11---------------|
|---------------------------------------------------------|
|---------------------------------------------------------|
|---------------------------------------------------------|

 --19-14--------------------17--22-17------------17-19--|
 ---------15------15-17-19-------------19-17-19---------|
 -------------16----------------------------------------|
 -------------------------------------------------------|
 -------------------------------------------------------|
 -------------------------------------------------------|


|-----------------------------------|
|-----------------------------------|
|-----------------------------------|
|-----------------------4(let ring--|
|--2--2--5--2--4--2--0--2(let ring--|
|-----------------------------------|


|----------------------------------------------------------------|
|----------------------------------------------------------------|
|----------------------------------------------------------------|
|----------------------------------------------------------------|
|--2-2-5-2-4-2-0-2--2-5-2-4-2-0-2---2-5-2-4-2-0---2-5-2---1-4-1--|
|---------------------------------5-------------2-------5--------|

 ---------------------------------------------------------------------|
 ---------------------------------------------------------------------|
 ---------------------------------------------------------------------|
 ---------------------------------------------------------------------|
 --2-2-5-2-4-2-0-2--2-5-2-4-2-0-2------2----2----2----------1-----1/4-| x2
 ----------------------------------5-5----5----5----5---4-4----4------|



|-------14---12--14---------------------------------|
|--12-----------------14---12-12-15-12-14-12-----12-|
|---------------------------------------------14----|
|---------------------------------------------------|  x4
|---------------------------------------------------|
|---------------------------------------------------|


|-----------------------------------------------------|
|--14-10----------10-14-10--14-10-15-10-14-10-----10--|
|--------11-9-11-------------------------------11-----|
|-----------------------------------------------------|  x3
|-----------------------------------------------------|
|-----------------------------------------------------|


|------------------------10--14-10---------------------|
|--14-10----------10-14-------------14-10-14-10--------|
|--------11-9-11---------------------------------11-9--|
|------------------------------------------------------|
|------------------------------------------------------|
|------------------------------------------------------|


|-----------------------------------------------------|
|--14-10----------10-14-10--14-10-15-10-14-10-----10--|
|--------11-9-11-------------------------------11-----|
|-----------------------------------------------------|  x2
|-----------------------------------------------------|
|-----------------------------------------------------|


|-------------------------10--14-10-------------------14--|
|--14-10-----------10-14-------------12-----12-14-15------|
|---------11-9-11------------------------11---------------|
|---------------------------------------------------------|
|---------------------------------------------------------|
|---------------------------------------------------------|

 --19-14--------------------17--22-17------------17-19--|
 ---------15------15-17-19-------------19-17-19---------|
 -------------16----------------------------------------|
 -------------------------------------------------------|
 -------------------------------------------------------|
 -------------------------------------------------------|


|---------------------------------------------------------------------|
|---------------------------------------------------------------------|
|---------------------------------------------------------------------|
|------------4--------------------------------------------------------|  x2
|--9--7--9------5---4h5p4--2--0--2-----------2--5---------4--7--5--4--|
|--9--7--9--------------------------2--4--5--------5--7---------------|


|------------------------------------------------------------------|
|------------------------------------------------------------------|
|--4-4-4-4-4-4-4-4-7-7-7-7-7-7-7-7---------------------------------|
|--4-4-4-4-4-4-4-4-7-7-7-7-7-7-7-7-5-5-5-5-5-5-5-5-4-4-4-4-4-4-4-4-|
|--2-2-2-2-2-2-2-2-5-5-5-5-5-5-5-5-5-5-5-5-5-5-5-5-4-4-4-4-4-4-4-4-|
|----------------------------------5-5-5-5-5-5-5-5-4-4-4-4-4-4-4-4-|

 ------------------------------------------------------------------|
 ------------------------------------------------------------------|
 --4-4-4-4-4-4-4-4-7-7-7-7-7-7-7-7---------------------------------|
 --4-4-4-4-4-4-4-4-7-7-7-7-7-7-7-7-5-5-5-5-5-5-5-5-7-7-7-7-7-7-7-7-|
 --2-2-2-2-2-2-2-2-5-5-5-5-5-5-5-5-5-5-5-5-5-5-5-5-7-7-7-7-7-7-7-7-|
 ----------------------------------5-5-5-5-5-5-5-5-7-7-7-7-7-7-7-7-|


Solo
|----------------------------------------------------------|
|--10-12-12-12-12-----12------12-14-14-14-14----14-----14--|
|------------------11----11------------------14----14------|
|----------------------------------------------------------|
|----------------------------------------------------------|
|----------------------------------------------------------|

 --------------------------------------------------------|
 --15-15-15-15-17-17-17--15h17p15--14-15-14-12-14-13-12--|
 --------------------------------------------------------|
 --------------------------------------------------------|
 --------------------------------------------------------|
 --------------------------------------------------------|


 --------14-17-14--------------------------------------|
 -----15----------15----15--------------10-8--7-8-7----|
 --14----------------14------------------------------9-|
 ------------------------------------------------------|
 ----------------------------17-16-14------------------|
 ------------------------------------------------------|


 -----------------17-19-17-------------19-17--------------------------------|
 --------------19----------19----------------19-17-------17-----------------|
 --------16-19----------------19-16----------------19-18-----19-18-18-16----|
 -----19----------------------------19-----------------------------------19-|
 --17-----------------------------------------------------------------------|
 ---------------------------------------------------------------------------|

 --15-14-12----------------------------14-12-10----------------------------|
 -----------15-14-12-15-14-12-------------------14-12-10-14-12-10----------|
 -----------------------------14-12-11----------------------------12-11-9--|
 --------------------------------------------------------------------------|
 --------------------------------------------------------------------------|
 --------------------------------------------------------------------------|

 ------------------------------------------|
 ------------------------------------------|
 --11--9h11p9--7--9--7--6--7--6------6-----|
 ---------------------------------9-----7--|
 ------------------------------------------|
 ------------------------------------------|

 ---------------------------------10-10-9-9--|
 -----------10-10-8-8-12-12-10-10------------|
 --9-9-7-7-----------------------------------|
 --------------------------------------------|
 --------------------------------------------|
 --------------------------------------------|

 --12-12-10-10-15-15-14-14-19-18-17-16-17-18-19--|
 ------------------------------------------------|
 ------------------------------------------------|
 ------------------------------------------------|
 ------------------------------------------------|
 ------------------------------------------------|   (end of solo)



|-----------------------------------------------------|
|--14-10----------10-14-10--14-10-15-10-14-10-----10--|
|--------11-9-11-------------------------------11-----|
|-----------------------------------------------------|  x3
|-----------------------------------------------------|
|-----------------------------------------------------|


|------------------------10--14-10---------------------|
|--14-10----------10-14-------------14-10-14-10--------|
|--------11-9-11---------------------------------11-9--|
|------------------------------------------------------|
|------------------------------------------------------|
|------------------------------------------------------|


|-----------------------------------------------------|
|--14-10----------10-14-10--14-10-15-10-14-10-----10--|
|--------11-9-11-------------------------------11-----|
|-----------------------------------------------------|  x2
|-----------------------------------------------------|
|-----------------------------------------------------|


|-------------------------10--14-10-------------------14--|
|--14-10-----------10-14-------------12-----12-14-15------|
|---------11-9-11------------------------11---------------|
|---------------------------------------------------------|
|---------------------------------------------------------|
|---------------------------------------------------------|

 --19-14--------------------17--22-17------------17-19--|
 ---------15------15-17-19-------------19-17-19---------|
 -------------16----------------------------------------|
 -------------------------------------------------------|
 -------------------------------------------------------|
 -------------------------------------------------------|


|-----------------------------------------------------|
|--14-10----------10-14-10--14-10-15-10-14-10-----10--|
|--------11-9-11-------------------------------11-----|
|-----------------------------------------------------|  x3
|-----------------------------------------------------|
|-----------------------------------------------------|


|------------------------10--14-10---------------------|
|--14-10----------10-14-------------14-10-14-10--------|
|--------11-9-11---------------------------------11-9--|
|------------------------------------------------------|
|------------------------------------------------------|
|------------------------------------------------------|


|-----------------------------------------------------|
|--14-10----------10-14-10--14-10-15-10-14-10-----10--|
|--------11-9-11-------------------------------11-----|
|-----------------------------------------------------|  x2
|-----------------------------------------------------|
|-----------------------------------------------------|


|-------------------------10--14-10-------------------14--|
|--14-10-----------10-14-------------12-----12-14-15------|
|---------11-9-11------------------------11---------------|
|---------------------------------------------------------|
|---------------------------------------------------------|
|---------------------------------------------------------|

 --19-14--------------------17--22-17------------17-19--|
 ---------15------15-17-19-------------19-17-19---------|
 -------------16----------------------------------------|
 -------------------------------------------------------|
 -------------------------------------------------------|
 -------------------------------------------------------|

(end solo)
|-----------------------------------------------------------|
|--15b---15b---15b-----14b---14b---14b-----12b---12b---12b--|
|--18b---18b---18b-----16b---16b---16b-----14b---14b---14b--|
|-----------------------------------------------------------|
|-----------------------------------------------------------|
|-----------------------------------------------------------|

 --14-----------------------14----14-19-14----------------------14-19--|
 -----15-----------------------15----------15----------------15--------|
 --------16-------------16--------------------16----------16-----------|
 -----------16-------16--------------------------16----16--------------|
 --------------14-17--------------------------------17-----------------|
 ----------------------------------------------------------------------|

 --17--15--14-------------------------|
 --------------17--15v(let ring)------|
 -------------------------------------|
 -------------------------------------|
 -------------------------------------|
 -------------------------------------|
Tap to rate this tab
 
# A B C D E F G H I J K L M N O P Q R S T U V W X Y Z