Song name
# A B C D E F G H I J K L M N O P Q R S T U V W X Y Z

Black Veil Brides - Savior tab

|------------------------|
|----------0-------------|
|---0---0---0----0-------|
|-----4--------4---------|  x2
|-7----------------------|
|------------------------|


|---------------------------|
|---------------------------|
|-----0-----0---------------|
|--------4------------------|
|--5------------------------|
|---------------------------|

(play first part again but replace 7 with 3)

|------------------------------|
|------------------------------|
|----0---0---0----0------------|
|------4--------4--------------|
|--3-------5-------------------|
|------------------------------|

this is 100% right and my first tab please rate and comment!!!!!
Tap to rate this tab
 
# A B C D E F G H I J K L M N O P Q R S T U V W X Y Z