Song name
# A B C D E F G H I J K L M N O P Q R S T U V W X Y Z

Black Veil Brides - Fallen Angels tab

First tab So go easy guys :P dont be trollin...

This is the dual intro to Fallen angels

Jake, Guitar 1:

--------------------------------------------------------------------------------|
--------------------------------------------------------------------------------|
-/12-----12-12/15-14-10------12/15-14-7------12/15-14-15-14--11-12-11-12-14-12--|
-----12-------------------12--------------12------------------------------------|
--------------------------------------------------------------------------------|
--------------------------------------------------------------------------------|


-------------------------------12-13-14-15\-------------------------------------|
-11-13-14-15-14-13-11-13-14-15--------------------------------------------------|
--------------------------------------------------------------------------------|
--------------------------------------------------------------------------------|
--------------------------------------------------------------------------------|
--------------------------------------------------------------------------------|


Jinxx, Guitar 2:

--------------------------------------------------------------------------------|
-/11-----11-11/15-13-10------/15-13--------/15--13-15-13--10-11-10-11-13-11-----|
------12------------------10--------10--10--------------------------------------|
--------------------------------------------------------------------------------|
--------------------------------------------------------------------------------|
--------------------------------------------------------------------------------|


-------------------------------15-16-17-18\-------------------------------------|
-15-16-17-18-17-16-15-16-17-18--------------------------------------------------|
--------------------------------------------------------------------------------|
--------------------------------------------------------------------------------|
--------------------------------------------------------------------------------|
--------------------------------------------------------------------------------|


Email me if you have any comments, constructive criticism, or if you want the rest of 
the song tabbed out :P

Theo Lee -tleenz@hotmail.com-
Tap to rate this tab
# A B C D E F G H I J K L M N O P Q R S T U V W X Y Z