Song name
# A B C D E F G H I J K L M N O P Q R S T U V W X Y Z

Black Veil Brides - Perfect Weapon tab

____________________________________________________________________________

                      Perfect Weapon - Black Veil Brides
____________________________________________________________________________

Tabbed by: SnackAttackO1
email: joddard.g@gmail.com
tuning: Drop Db (Db,Ab,Db,Gb,Bb,eb)


   INTRO
   eb|-------------------------------------------------|
   Bb|-------------------------------------------------|
   Gb|-------------------------------------------------|
   Db|--------7----------------------2-------5-5-5-3---|
   Ab|-------------3--5--------------------------------|
   Db|---0--0---0---------0--3b---0-----0--------------|
 Pm      .  .   .         .       .     .

   eb|-------------------------------------------------|
   Bb|-------------------------------------------------|
   Gb|-------------------------------------------------|
   Db|---------7----------------------2-------5-5-5-5--|
   Ab|--------------3--5----------------------3-3-3-3--|
   Db|---0--0----0---------0--3b---0-----0-------------|
 Pm      .  .    .         .       .     .

   eb|-------------------------------------------------|
   Bb|-------------------------------------------------|
   Gb|-------------------------------------------------|
   Db|---------7----------------------7-----10-10-10-8-|
   Ab|--------------3--5-------------------------------|
   Db|---8--8----8---------0--8b---8-----8-------------|
 Pm      .  .    .         .       .     .

   eb|-------------------------------------------------|
   Bb|-------------------------------------------------|
   Gb|-------------------------------------------------|
   Db|---------7----------------------------/10--8-----|
   Ab|--------------3--5-------------------------------|
   Db|---8--8----8---------0-0---7--5--3--5------------|
 Pm      .  .    .         . .

   VERSE
   eb|-------------------------------------------------|
   Bb|-------------------------------------------------|
   Gb|-------------------------------------------------|
   Db|---0--------3----/----10-----7---5---2-----------|
   Ad|---0--------3----/----8--------------------------|
   Db|---0--------3----/----7--------------------------|
 Pm

   eb|---------------------------------------------------------------------|
   Bb|---------------------------------------------------------------------|
   Gb|---------------------------------------------------------------------|
   Db|---------------------------3-2---2---3-------------3--------2----3---|
   Ab|-------------------------------3-----3-------------3-----3-----------|
   Db|---0---0-0-000-0-0---0-0-0-----------3---3-3-333-3-3---3---3---3---3-|
 Pm          . . ... .     . . .               . . ... .     .   .   .   .

  Eb|----------------------------------------------------------------------|
  Bb|----------------------------------------------------------------------|
  Gb|----------------------------------------------------------------------|
  Db|-8-------------8--------------------7---------------------------------|
  Ab|-8-------------8-----7---8p7--5-7---7---------------8h10p8-7-8-10-8-12|
  Db|-8---8-8-888-8-8---8---8------------7--7-7-777-7-7--------------------|
 Pm       . . ... .     .   .               . . ... . .

   PRE CHORUS
  eb|----------------------------------------------------------------------|
  Bb|----------------------------------------------------------------------|
  Gb|-----------------------------7p5p3------------------------------------|
  Db|---3-3-3-3-3-3-3-3--5-5-5-5----------7p5p3-0-------7p0-5\2-2h3--------|
  Ab|---1-1-1-1-1-1-1-1--3-3-3-3-------------------------------------------|
  Db|---------------------------------------------0-0-0-------------0-000-0|
Pm                                                . . .             . ... .

  eb|------------|  |----------------------------------------------|
  Bb|------------|  |----------------------------------------------|
  Gb|------------|  |--------------------7-9-7-9br-5-7-------------|
  Db|--7p5--2h3--|  |--8-8---3-3---5-5-----------------------------|
  Ad|------------|  |--8-8---3-3---5-5-----------------------------|
  Db|------------|  |--8-8---3-3---5-5-----------------------------|
 Pm

   CHORUS
  eb|----------------------------------------------------------------------|
  Bb|----------------------------------------------------------------------|
  Gb|----------------------------------------------------------------------|
  Db|-10-10-10-10-10-10-10-10-10-10-10-10-10-10-10--10-10-10-10-10-10-10-10|
  Ab|-8--8--8--8--8--8--8--8--8--8--8--8--8--8--8---8--8--8--8--8--8--8--8-|
  Db|-8--8--8--8--8--8--8--8--8--8--8--8--8--8--8---7--7--7--7--7--7--7--7-|

  eb|----------------------------------------------------------------------|
  Bb|----------------------------------------------------------------------|
  Gb|----------------------------------------------------------------------|
  Db|-10-10-10-10-10-x--10-\--------7----------------------2-------5-5-5-3-|
  Ab|-8--8--8--8--8--x--10-\-------------3--5------------------------------|
  Db|-7--7--7--7--7--x--10-\---0--0---0---------0--3b---0-----0------------|
 Pm                            .  .   .         .       .     .

  eb|------------------------------------------------|
  Bb|------------------------------------------------|
  Gb|------------------------------------------------|
  Db|--------7----------------------2-------5-5-5-5--|
  Ab|-------------3--5----------------------3-3-3-3--|
  Db|--0--0----0---------0--3b---0-----0-------------|
 Pm    .  .    .         .       .     .


   PRE BREAKDOWN THING
  eb|----------------------------------------------------------------|
  Bb|----------------------------------------------------------------|
  Gb|----------------------------------------------------------------|
  Db|----------------------------------------------------------------|
  Ab|----------------------------------------------------------------|
  Db|--0-00000-0-00000-0-00000-12\---0-00000-0-00000-0-00000-8-5-7-3-|
 Pm    . ..... . ..... . .....       . ..... . ..... . .....

  eb|---------------------------------|
  Bb|---------------------------------|
  Gb|---------------------------------|
  Db|--------------------------/5~----|
  Ab|---------------------------------|
  Db|--3-33333-3-33333-3-33333--------|
 Pm


   BREAKDOWN
  eb|------------------------------------------------------------|
  Bb|------------------------------------------------------------|
  Gb|------------------------------------------------------------|
  Db|------------------------------------------------------------|
  Ab|--5---------5---5-8-7--------7---7-9-8TP---7TP---5TP---0TP--|
  Eb|-----0-0-0----0--------7-7-7---7----------------------------|
 Pm       . . .    .        . . .   .

  eb|----------------------------------------------------------------------|
  Bb|----------------------------------------------------------------------|
  Gb|----------------------------------------------------------------------|
  Db|---------------------------------------------------7-----------------7|
  Ab|-5--------5---5-8-7--------7---7-9--7-5-5-5-7-5-7---10-7-7-7-10-7-10--|
  Db|---0-0-0----0--------7-7-7---7----------------------------------------|
 Pm     . . .    .        . . .   .

  eb|------------------------------13--12------------12------12--14---|
  Bb|--15--------------15------15----------14-14-14------14-----------|
  Gb|------14--14--14------14-----------------------------------------|
  Db|-----------------------------------------------------------------|
  Ab|-----------------------------------------------------------------|
  Db|-----------------------------------------------------------------|
 Pm

  eb|----------------------------------13h15p13p12-12--------------12-----|
  Bb|--------------------------------------------------15--14--15------15-|
  Gb|---------------------------------------------------------------------|
  Db|------7-------3-------5-------2--------------------------------------|
  Ab|------7-------3-------5-------2--------------------------------------|
  Db|---0--7----0--3----0--5----0--2--------------------------------------|
 Pm     .       .       .       .

   SOLO
  eb|--15-13------13------------------------------|
  Bb|--------15------15-13---15-13------13--------|
  Gb|------------------------------14------14-12--|
  Db|---------------------------------------------|
  Ab|---------------------------------------------|
  Db|---------------------------------------------|
 Pm

  eb|---------------------------------------------|
  Bb|---------------------------------------------|
  Gb|--14-12------12------------------------------|
  Db|--------15------15-12---15-12------12--------|
  Ab|------------------------------15------15-12--|
  Db|---------------------------------------------|
 Pm

  eb|----------------------------------------------------------------------|
  Bb|-------------------------------------------10-------------------------|
  Gb|----------------------10------10-14-10-14------14--10-14-10------10^--|
  Db|---------10-14-10-14------14---------------------------------14-------|
  Ab|--10-14---------------------------------------------------------------|
  Db|----------------------------------------------------------------------|
 Pm

  eb|-----------------------------------------------------------------|
  Bb|-18p15p13h15--18p15h18p15p13h15--18p15h18p15p13h15--18p15p13h15--|
  Gb|-----------------------------------------------------------------|
  Db|-----------------------------------------------------------------|
  Ab|-----------------------------------------------------------------|
  Db|---*Tap the 18's with your right hand*---------------------------|
  Pm

  eb|-------------------------------------------------------------------|
  Bb|-18p15p13h15-18p15p13h15-18p15p13h15-18p15p13h15-18p15h18p15p13h15-|
  Gb|-------------------------------------------------------------------|
  Db|-------------------------------------------------------------------|
  Ab|-------------------------------------------------------------------|
  Db|-------------------------------------------------------------------|
 Pm

  eb|-----------------12TP--13TP--15TP--13TP--15TP-15b--15b--15br--12-|
  Bb|--18p15h18p15p13-------------------------------------------------|
  Gb|-----------------------------------------------------------------|
  Db|-----------------------------------------------------------------|
  Ab|-----------------------------------------------------------------|
  Db|-----------------------------------------------------------------|
 Pm

  eb|----------13-15-13-15----15-------------------------------|
  Bb|-15b-------------------17----17-15-17-15-13-15-13-13---13-|
  Gb|-----------------------------------------------------15---|
  Db|----------------------------------------------------------|
  Ab|----------------------------------------------------------|
  Db|----------------------------------------------------------|
 Pm

  eb|----------------------------------------------------------------------|
  Bb|----------------------------------------------------------------------|
  Gb|--15-14-15-14-12-14-12-----12-------------------------/12-12-12~------|
  Db|------------------------15----15-14-15-14-12-12~----------------------|
  Ab|----------------------------------------------------------------------|
  Db|----------------------------------------------------------------------|
 Pm

  eb|---------------------------------------10-------------10--------------|
  Bb|--------------------------------------------10---12---13b-------------|
  Gb|--7h9p7TR----9h10p9TR----10h12p10TR-----------------------------------|
  Db|----------------------------------------------------------------------|
  Ab|----------------------------------------------------------------------|
  Db|----------------------------------------------------------------------|
 Pm




 KEY:
 Palm mute .
 Pinch harmonic ^
 Bend b
 Slide up /
 Slide down \
 Tremolo pick TP
 Trill TR
 Hammer on h
 Pull off p

 I couldn't figure out some of the outro licks, but most of the main parts are here.  
Hope this helps.
Tap to rate this tab
# A B C D E F G H I J K L M N O P Q R S T U V W X Y Z