Song name
# A B C D E F G H I J K L M N O P Q R S T U V W X Y Z

Black Veil Brides - Savior tab

Song: Savior
Band: Black Veil Brides
Tabbed by: defyingthfallen
Tuning: Drop Db

i know there are actually three guitars. i'm working on getting the harmony on the intro 
done and then finishing the entire song. guitar 1 is 100% correct, and i'm

pretty sure guitar 2 is at least 98% correct. tabbed by ear. this is my first tab on 
here, so i hope its good :P

-Justyn Visibil

   Guitar 1(acoustic)
Eb :----------------|----------------|----------------|----------------|
Bb :--------0-------|----------------|--------0-------|----------------|
Gb :--0---0---0---0-|--0---0---0---0-|--0---0---0---0-|--0---0---0---0-|
Db :----4-------4---|----4-------4---|----4-------4---|----4-------4---|
Ab :7---------------|7-------5-------|3---------------|3-------5-------|
Db :----------------|----------------|----------------|----------------|

   Guitar 2(distorted)
Eb :----------------|----------------|----------------|----------------|
Bb :----------------|----------------|----------------|----------------|
Gb :----------------|----------------|----------------|----------------|
Db :----------------|----------------|----------------|----------------|
Ab :----------------|----------------|----------------|----------------|
Db :----------------|----------------|----------------|----------------|

============================================================================


Eb :----------------|----------------|-----------------|
Bb :--------0-------|----------------|---------0-------|
Gb :--0---0---0---0-|--0---0---0---0-|---0---0---0---0-|
Db :----4-------4---|----4-------4---|-----4-------4---|
Ab :7---------------|7-------5-------|-3---------------|
Db :----------------|----------------|-----------------|


Eb :----------------|-----------------|------------------|
Bb :----------------|-----------------|------------------|
Gb :9-------------7-|9-----7-9---11---|12-----------14---|
Db :----------------|-----------------|------------------|
Ab :----------------|-----------------|------------------|
Db :----------------|-----------------|------------------|

============================================================================


Eb :------------------|----------------|----------------|
Bb :------------------|--------0-------|----------------|
Gb :---0----0---0---0-|--0---0---0---0-|--0---0---0---0-|
Db :-----4--------4---|----4-------4---|----4-------4---|
Ab :-3--------5-------|7---------------|7-------5-------|
Db :------------------|----------------|----------------|


Eb :----------------------|----------------|----------------|
Bb :----------------------|----------------|----------------|
Gb :12-----14-12-11-------|9-7-------------|--------7-------|
Db :----------------------|----9-----------|7---------------|
Ab :----------------------|----------------|----------------|
Db :----------------------|----------------|----------------|

============================================================================


Eb :----------------|----------------|----------------|----------------|
Bb :--------0-------|----------------|--------0-------|----------------|
Gb :--0---0---0---0-|--0---0---0---0-|--0---0---0---0-|--0---0---0---0-|
Db :----4-------4---|----4-------4---|----4-------4---|----4-------4---|
Ab :3---------------|3-------5-------|7---------------|7-------5-------|
Db :----------------|----------------|----------------|----------------|


Eb :----------------|-----------------|----------------|-----------------|
Bb :----------------|-----------------|----------------|-----------------|
Gb :----------------|-----------------|9-------------7-|9-----7-9---11---|
Db :9-----------7---|5-----7p5--------|----------------|-----------------|
Ab :----------------|---------7-------|----------------|-----------------|
Db :----------------|-----------------|----------------|-----------------|

============================================================================


Eb :------------------|------------------|----------------|
Bb :---------0--------|------------------|--------0-------|
Gb :---0---0---0----0-|---0----0---0---0-|--0---0---0---0-|
Db :-----4--------4---|-----4--------4---|----4-------4---|
Ab :-3----------------|-3--------5-------|7---------------|
Db :------------------|------------------|----------------|


Eb :-------------------|---------------------|------------------|
Bb :---------17---15---|13-----15p13---------|------------------|
Gb :12-----------------|------------16-------|9-11-12-----------|
Db :-------------------|---------------------|------------------|
Ab :-------------------|---------------------|------------------|
Db :-------------------|---------------------|------------------|

============================================================================


Eb :-----------------|-----------------|-----------------|
Bb :-----------------|---------0-------|-----------------|
Gb :---0---0---0---0-|---0---0---0---0-|--0----0---0---0-|
Db :-----4-------4---|-----4-------4---|----4--------4---|
Ab :-7-------5-------|-3---------------|3--------5-------|
Db :-----------------|-----------------|-----------------|


Eb :-------------------|--------------------|-------------------|
Bb :-------------------|--------------------|-------------------|
Gb :12-14-16-----------|16---14---12---11---|9-----11p9p7-------|
Db :-------------------|--------------------|-------------------|
Ab :-------------------|--------------------|-------------------|
Db :-------------------|--------------------|-------------------|

============================================================================


Eb :----------------|----------------|----------------|----------------|
Bb :--------0-------|--------0-------|--------0-------|--------0-------|
Gb :--0---0---0---0-|--0---0---0---0-|--0---0---0---0-|--0---0---0---0-|
Db :----4-------4---|----4-------4---|----4-------4---|----4-------4---|
Ab :7---------------|7---------------|7---------------|7---------------|
Db :----------------|----------------|----------------|----------------|
Tap to rate this tab
 
# A B C D E F G H I J K L M N O P Q R S T U V W X Y Z