Song name
# A B C D E F G H I J K L M N O P Q R S T U V W X Y Z

Black Veil Brides - Rebel Love Song tab

Someone requested tabs for this song after watching my cover so I'm posting them here :p
Pretty easy song to play coming from Black Veil Brides.
Noticed alot of people had trouble figuring out the fills in the pre-chorus but I 
watched alot of live videos to figure it out.
Song is in dropped C#

Check out my bass cover of this song!

http://www.youtube.com/watch?v=Iw2PAKPU0fw

Check out my channel for more covers!

http://www.youtube.com/user/chrisistheazn

Intro

F#|----------------------------------------------------------------------|
C#|----------------------------------------------------------------------|
G#|-4p2-2-2-2-2-2-2-4p2-5p2-4p2p0h2--------------------------------------|
C#|----------------------------------------------------------------------|

F#|----------------------------------------------------------------------|
C#|----------------------------------------------------------------------|
G#|-2-2-2-2-2-2-2-2-2-2-2-2-2-2-2-2--------------------------------------| x3
C#|---------------------------------5-5-5-5-5-5-5-5-2-2-2-2-2-2-2-2------|

F#|----------------------------------------------------------------------|
C#|----------------------------------------------------------------------|
G#|----------------------------------------------------------------------|
C#|-7-7-7-7-7-7-7-7-7-7-7-7-7-7-7-7-5-5-5-5-5-5-5-5---4-4-4-4-4-4-4------|

Pre-Verse/Riff

F#|----------------------------------------------------------------------|
C#|----------------------------------------------------------------------|
G#|-2p0-5p2-4p2p0h2------------------------------------------------------|
C#|----------------------------------------------------------------------|

Verse 1

F#|----------------------------------------------------------------------|
C#|----------------------------------------------------------------------|
G#|-2-2-2-2-2-2-2-2-2-2-2-2-2-2-2-2--------------------------------------|
C#|---------------------------------5-5-5-5-5-5-5-2-2-2-2-2-2-2-2-2------|

F#|----------------------------------------------------------------------|
C#|----------------------------------------------------------------------|
G#|-2-2-2-2-2-2-2-2-2-2-2-2-2-2-2-2--------------------------------------|
C#|---------------------------------5-5-5-5-5-5-5-5-4-4-4-4-4-4-4-4------|

F#|----------------------------------------------------------------------|
C#|----------------------------------------------------------------------|
G#|-2-2-2-2-2-2-2-2-2-2-2-2-2-2-2-2--------------------------------------|
C#|---------------------------------5-5-5-5-5-5-5-2-2-2-2-2-2-2-2-2------|

F#|----------------------------------------------------------------------|
C#|----------------------------------------------------------------------|
G#|-2-2-2-2-2-2-2-2-2-2-2-2-2-2-2-2--------------------------------------|
C#|---------------------------------5-5-5-5-5-5-5-5-4-4-4-4-4-4-4-4------|

Pre-Chorus 1

F#|----------------------------------------------------------------------|
C#|-----------------4p0-2p0-4p0-2p0-----------------4p0-2p0-4p0-2p0------|
G#|-2-2-2-2-2-2-2-2------------------------------------------------------|
C#|---------------------------------5-5-5-5-5-5-5-5----------------------|

F#|----------------------------------------------------------------------|
C#|-----------------4p0-2p0-4p0-2p0-----------------4p0-2p0-4p0-2p0------|
G#|---------------------------------0-0-0-0-0-0-0-0----------------------|
C#|-2-2-2-2-2-2-2-2------------------------------------------------------|

Chorus 1

F#|----------------------------------------------------------------------|
C#|----------------------------------------------------------------------|
G#|---------------------------------0-0-0-0-0-0-0-0-0-0-0-0-0-0-0-0------|
C#|-0-0-0-0-0-0-0-0-0-0-0-0-0-0-0-0--------------------------------------|

F#|----------------------------------------------------------------------|
C#|----------------------------------------------------------------------|
G#|-2-2-2-2-2-2-2-2-2-2-2-2-2-2-2-2--------------------------------------|
C#|---------------------------------5-5-5-5-5-5-5-5-5-5-5-5-5-5-5-5------|

F#|----------------------------------------------------------------------|
C#|----------------------------------------------------------------------|
G#|---------------------------------0-0-0-0-0-0-0-0-0-0-0-0-0-0-0-0------|
C#|-0-0-0-0-0-0-0-0-0-0-0-0-0-0-0-0--------------------------------------|

F#|----------------------------------------------------------------------|
C#|----------------------------------------------------------------------|
G#|----------------------------------------------------------------------|
C#|-5-5-5-5-5-5-5-5-5-5-5-5-5-5-5-5-9-9-9-9-9-9-9-9-7-7-7-7-7-7-7-7------|

After-Chorus/Riff

F#|----------------------------------------------------------------------|
C#|----------------------------------------------------------------------|
G#|-2p0-5p2-4p2p0h2------------------------------------------------------|
C#|----------------------------------------------------------------------|

Verse 2

F#|----------------------------------------------------------------------|
C#|----------------------------------------------------------------------|
G#|-2-2-2-2-2-2-2-2-2-2-2-2-2-2-2-2--------------------------------------|
C#|---------------------------------5-5-5-5-5-5-5-2-2-2-2-2-2-2-2-2------|

F#|----------------------------------------------------------------------|
C#|----------------------------------------------------------------------|
G#|-2-2-2-2-2-2-2-2-2-2-2-2-2-2-2-2--------------------------------------|
C#|---------------------------------5-5-5-5-5-5-5-5-4-4-4-4-4-4-4-4------|

F#|----------------------------------------------------------------------|
C#|----------------------------------------------------------------------|
G#|-2-2-2-2-2-2-2-2-2-2-2-2-2-2-2-2--------------------------------------|
C#|---------------------------------5-5-5-5-5-5-5-2-2-2-2-2-2-2-2-2------|

F#|----------------------------------------------------------------------|
C#|----------------------------------------------------------------------|
G#|-2-2-2-2-2-2-2-2-2-2-2-2-2-2-2-2--------------------------------------|
C#|---------------------------------5-5-5-5-5-5-5-5-4-4-4-4-4-4-4-4------|

Pre-Chorus 2

F#|----------------------------------------------------------------------|
C#|-----------------4p0-2p0-4p0-2p0-----------------4p0-2p0-4p0-2p0------|
G#|-2-2-2-2-2-2-2-2------------------------------------------------------|
C#|---------------------------------5-5-5-5-5-5-5-5----------------------|

F#|----------------------------------------------------------------------|
C#|-----------------4p0-2p0-4p0-2p0-----------------4p0-2p0-4p0-2p0------|
G#|---------------------------------0-0-0-0-0-0-0-0----------------------|
C#|-2-2-2-2-2-2-2-2------------------------------------------------------|

Chorus 2

F#|----------------------------------------------------------------------|
C#|----------------------------------------------------------------------|
G#|---------------------------------0-0-0-0-0-0-0-0-0-0-0-0-0-0-0-0------|
C#|-0-0-0-0-0-0-0-0-0-0-0-0-0-0-0-0--------------------------------------|

F#|----------------------------------------------------------------------|
C#|----------------------------------------------------------------------|
G#|-2-2-2-2-2-2-2-2-2-2-2-2-2-2-2-2--------------------------------------|
C#|---------------------------------5-5-5-5-5-5-5-5-5-5-5-5-5-5-5-5------|

F#|----------------------------------------------------------------------|
C#|----------------------------------------------------------------------|
G#|---------------------------------0-0-0-0-0-0-0-0-0-0-0-0-0-0-0-0------|
C#|-0-0-0-0-0-0-0-0-0-0-0-0-0-0-0-0--------------------------------------|

F#|----------------------------------------------------------------------|
C#|----------------------------------------------------------------------|
G#|----------------------------------------------------------------------|
C#|-5-5-5-5-5-5-5-5-5-5-5-5-5-5-5-5-9-9-9-9-9-9-9-9-7-7-7-7-7-7-7-7------|

Bridge

F#|----------------------------------------------------------------------|
C#|----------------------------------------------------------------------|
G#|----------------------------------------------------------------------|
C#|-9-9-9---9---9---9---9---9---9---5---5---5---5---7---7---7---7--------|

F#|----------------------------------------------------------------------|
C#|----------------------------------------------------------------------|
G#|----------------------------------------------------------------------|
C#|-9-9-9---9---9---9---9---9---9---5---5---5---5---7---7---7---7--------|

F#|----------------------------------------------------------------------|
C#|----------------------------------------------------------------------|
G#|-2-2-2-2-2-2-2-2-5-5-5-5-5-5-5-5--------------------------------------|
C#|---------------------------------5-5-5-5-5-5-5-5-4-4-4-4-4-4-4-4------|

F#|----------------------------------------------------------------------|
C#|----------------------------------------------------------------------|
G#|-2-2-2-2-2-2-2-2-5-5-5-5-5-5-5-5--------------------------------------|
C#|---------------------------------5-5-5-5-5-5-5-5-7-7-7-7-7-7-7-7------|

Guitar Solo

F#|----------------------------------------------------------------------|
C#|----------------------------------------------------------------------|
G#|-2-2-2-2-2-2-2-2-2-2-2-2-2-2-2-2--------------------------------------| x3
C#|---------------------------------5-5-5-5-5-5-5-5-2-2-2-2-2-2-2-2------|

F#|----------------------------------------------------------------------|
C#|----------------------------------------------------------------------|
G#|----------------------------------------------------------------------|
C#|-7-7-7-7-7-7-7-7-7-7-7-7-7-7-7-7-5-5-5-5-5-5-5-5---4-4-4-4-4-4-4------|

Pre-Chorus 3

No Bass

Chorus 3

F#|----------------------------------------------------------------------|
C#|----------------------------------------------------------------------|
G#|---------------------------------0-0-0-0-0-0-0-0-0-0-0-0-0-0-0-0------|
C#|-0-0-0-0-0-0-0-0-0-0-0-0-0-0-0-0--------------------------------------|

F#|----------------------------------------------------------------------|
C#|----------------------------------------------------------------------|
G#|-2-2-2-2-2-2-2-2-2-2-2-2-2-2-2-2--------------------------------------|
C#|---------------------------------5-5-5-5-5-5-5-5-5-5-5-5-5-5-5-5------|

F#|----------------------------------------------------------------------|
C#|----------------------------------------------------------------------|
G#|---------------------------------0-0-0-0-0-0-0-0-0-0-0-0-0-0-0-0------|
C#|-0-0-0-0-0-0-0-0-0-0-0-0-0-0-0-0--------------------------------------|

F#|----------------------------------------------------------------------|
C#|----------------------------------------------------------------------|
G#|----------------------------------------------------------------------|
C#|-5-5-5-5-5-5-5-5-5-5-5-5-5-5-5-5-9-9-9-9-9-9-9-9-7-7-7-7-7-7-7-7------|

F#|----------------------------------------------------------------------|
C#|----------------------------------------------------------------------|
G#|---------------------------------0-0-0-0-0-0-0-0-0-0-0-0-0-0-0-0------|
C#|-0-0-0-0-0-0-0-0-0-0-0-0-0-0-0-0--------------------------------------|

F#|----------------------------------------------------------------------|
C#|----------------------------------------------------------------------|
G#|-2-2-2-2-2-2-2-2-2-2-2-2-2-2-2-2--------------------------------------|
C#|---------------------------------5-5-5-5-5-5-5-5-5-5-5-5-5-5-5-5------|

F#|----------------------------------------------------------------------|
C#|----------------------------------------------------------------------|
G#|---------------------------------0-0-0-0-0-0-0-0-0-0-0-0-0-0-0-0------|
C#|-0-0-0-0-0-0-0-0-0-0-0-0-0-0-0-0--------------------------------------|

F#|----------------------------------------------------------------------|
C#|----------------------------------------------------------------------|
G#|----------------------------------------------------------------------|
C#|-5-5-5-5-5-5-5-5-5-5-5-5-5-5-5-5-9-9-9-9-9-9-9-9-7-7-7-7-7-7-7-7------|

Outro

F#|----------------------------------------------------------------------|
C#|----------------------------------------------------------------------|
G#|-2-2-2-------------------0-0-5-5-2-2-2--------------------------------|
C#|-------5-5-5-2-2-2-0-0-0---------------5-5-5-2-2-2-0-0-0-0-000-0------|

F#|----------------------------------------------------------------------|
C#|----------------------------------------------------------------------|
G#|-2-2-2-------------------0-0-5-5-2-2-2--------------------------------|
C#|-------5-5-5-2-2-2-0-0-0---------------5-5-5-2-2-2-0-0-0-0-0-0-0------|

F#|----------------------------------------------------------------------|
C#|----------------------------------------------------------------------|
G#|-0--------------------------------------------------------------------|
C#|---5-4-2-0------------------------------------------------------------|



| /  slide up
| \  slide down
| h  hammer-on
| p  pull-off
| ~  vibrato
| +  harmonic
| x  Mute note
Tap to rate this tab
 
# A B C D E F G H I J K L M N O P Q R S T U V W X Y Z