Song name
# A B C D E F G H I J K L M N O P Q R S T U V W X Y Z

Black Veil Brides - Saviour tab

Artist:Black Veil Brides
Song: Saviour
Tuning: Drop C#

D#----------------------------------|
A#------------0---------------------|
F#-----0----0---0---0----0------0---|
C#--------4-------4--------4--------|
G#---7-----------------7------------|
C#----------------------------------|



D#---------------------------------------|
A#---------------------0-----------------|
F#-----0----0----0---0---0---0----0----0-|
C#--------4-------4--------4---------4---|
G#---5---------3----------------3--------|
C#---------------------------------------|
Tap to rate this tab
# A B C D E F G H I J K L M N O P Q R S T U V W X Y Z