Song name
# A B C D E F G H I J K L M N O P Q R S T U V W X Y Z

Black Veil Brides - God Bless You tab

This song is in Drop C# tuning (as most of BVB's songs are). Drop C# is 
Drop D tuned down a half step. This tab misses the last piece of the 
solo :/ (I'm not that good at tremolo picking). Come with changes if you 
find something that can be improved :)


Intro:
|-------------------------------------------------------------------------|
|-------------------------------------------------------------------------|
|-------------------------------------------------------------------------|
|-------------------------------------------------------------------------|
|-0-0-3-0--0-3-0-6-6-5-3-5-3-3-0--0-3-0-3-0--0-6-6-5-3-5-3-3-0------------|
|-0-0-3-0--0-3-0-6-6-5-3-5-3-3-0--0-3-0-3-0--0-6-6-5-3-5-3-3-0------------|

|-------------------------------------------------------------------------|
|-/10----/10-9---/8-6~/--10p8----8----------------------------------------|
|-----10-------9--------------10---10-9-10-9-7----7-----------------------|
|----------------------------------------------10-------------------------|
|-------------------------------------------------------------------------|
|-------------------------------------------------------------------------|
                                   *  *  * *    


Verse:
|-------------------------------------------------------------------------|
|-------------------------------------------------------------------------|
|-------------------------------------------------------------------------|
|-------------------------------------------------------------------------|
|----------------------3-5---------------------5*-------------------------|
|-0-0-0--000-0-0-3-035-----0-0-0-0-0-7-7-6-5-6----------------------------|
         **        ***
|-------------------------------------------------------------------------|
|-------------------------------------------------------------------------|
|-------------------------------------------------------------------------|
|-------------------------------------------------------------------------|
|----------------------3-5---------------------5*-------------------------|
|-0-0-0--000-0-0-3-035-----0-0-0-0-0-7-7-6-5-6----------------------------|
         **        ***


Pre-Chorus:
|-------------------------------------------------------------------------|
|-------------------------------------------------------------------------|
|-7p5---5-7p5---5-7p5---5-7p5---5-9p7----7-9p7----7-9p7----7-9p7----7-----|
|-----7-------7-------7-------7-------10-------10-------10-------10-------|
|-------------------------------------------------------------------------|
|-------------------------------------------------------------------------|

|-------------------------------------------------------------------------|
|-------------------------------------------------------------------------|
|-10p9----9-10p9----9-10p9----9-10p9----9---------------------------------|
|------12--------12--------12--------12---12-10-9-10-9----------9-10-12---|
|------------------------------------------------------12-10-12-----------|
|-------------------------------------------------------------------------|

|-------------------------------------------------------------------------|
|---------10-13-----------------------------------------------------------|
|-9-10-12-----------------------------------------------------------------|
|-------------------------------------------------------------------------|
|-------------------------------------------------------------------------|
|-------------------------------------------------------------------------|

|-------------------------------------------------------------------------|
|-------------------------------------------------------------------------|
|-7p5---5-7p5---5-7p5---5-7p5---5-9p7----7-9p7----7-9p7----7-9p7----7-----|
|-----7-------7-------7-------7-------10-------10-------10-------10-------|
|-------------------------------------------------------------------------|
|-------------------------------------------------------------------------|

|-------------------------------------------------------------------------|
|-------------------------------------------------------------------------|
|-10p9----9-10p9----9-10p9----9-10p9----9--12b----------------------------|
|------12--------12--------12--------12-----------------------------------|
|-------------------------------------------------------------------------|
|-------------------------------------------------------------------------|


Chorus:
|-------------------------------------------------------------------------|
|-------------------------------------------------------------------------|
|-------------------------------------------------------------------------|
|-0-0-0-0-0-0-0-0-7-7-7-7-7-7-7-7-8-8-8-8-8-8-8-8--5-5-5--3-3-3-----------|
|-0-0-0-0-0-0-0-0-7-7-7-7-7-7-7-7-8-8-8-8-8-8-8-8--5-5-5--3-3-3-----------|
|-0-0-0-0-0-0-0-0-7-7-7-7-7-7-7-7-8-8-8-8-8-8-8-8--5-5-5--3-3-3-----------|

|-------------------------------------------------------------------------|
|-------------------------------------------------------------------------|
|-------------------------------------------------------------------------|
|-0-0-0-0-0-0-0-0-7-7-7-7-7-7-7-7-8-8-8-8-8-8-8-8--5-5-5------------------|
|-0-0-0-0-0-0-0-0-7-7-7-7-7-7-7-7-8-8-8-8-8-8-8-8--5-5-5------------------|
|-0-0-0-0-0-0-0-0-7-7-7-7-7-7-7-7-8-8-8-8-8-8-8-8--5-5-5--3-3-3-----------|
                                                          * * * 


Pre-Verse:
|-------------------------------------------------------------------------|
|-------------------------------------------------------------------------|
|-------------------------------------------------------------------------|
|-------------------------------------------------------------------------|
|-0-0-3-0--0-3-0-6-6-5-3-5-3-3-0--0-3-0-3-0--0-6-6-5-3-5-3-3-0------------|
|-0-0-3-0--0-3-0-6-6-5-3-5-3-3-0--0-3-0-3-0--0-6-6-5-3-5-3-3-0------------|


Verse:
|-------------------------------------------------------------------------|
|-------------------------------------------------------------------------|
|-------------------------------------------------------------------------|
|-------------------------------------------------------------------------|
|----------------------3-5---------------------5*-------------------------|
|-0-0-0--000-0-0-3-035-----0-0-0-0-0-7-7-6-5-6----------------------------|
         **        ***
|-------------------------------------------------------------------------|
|-------------------------------------------------------------------------|
|-------------------------------------------------------------------------|
|-------------------------------------------------------------------------|
|----------------------3-5---------------------5*-------------------------|
|-0-0-0--000-0-0-3-035-----0-0-0-0-0-7-7-6-5-6----------------------------|
         **        ***


Pre-Chorus:

|-------------------------------------------------------------------------|
|-------------------------------------------------------------------------|
|-7p5---5-7p5---5-7p5---5-7p5---5-9p7----7-9p7----7-9p7----7-9p7----7-----|
|-----7-------7-------7-------7-------10-------10-------10-------10-------|
|-------------------------------------------------------------------------|
|-------------------------------------------------------------------------|

|-------------------------------------------------------------------------|
|-------------------------------------------------------------------------|
|-10p9----9-10p9----9-10p9----9-10p9----9---------------------------------|
|------12--------12--------12--------12---12-10-9-10-9----------9-10-12---|
|------------------------------------------------------12-10-12-----------|
|-------------------------------------------------------------------------|

|-------------------------------------------------------------------------|
|---------10-13-----------------------------------------------------------|
|-9-10-12-------12b-------------------------------------------------------|
|-------------------------------------------------------------------------|
|-------------------------------------------------------------------------|
|-------------------------------------------------------------------------|


Chorus:
|-------------------------------------------------------------------------|
|-------------------------------------------------------------------------|
|-------------------------------------------------------------------------|
|-0-0-0-0-0-0-0-0-7-7-7-7-7-7-7-7-8-8-8-8-8-8-8-8--5-5-5--3-3-3-----------|
|-0-0-0-0-0-0-0-0-7-7-7-7-7-7-7-7-8-8-8-8-8-8-8-8--5-5-5--3-3-3-----------|
|-0-0-0-0-0-0-0-0-7-7-7-7-7-7-7-7-8-8-8-8-8-8-8-8--5-5-5--3-3-3-----------|

|-------------------------------------------------------------------------|
|-------------------------------------------------------------------------|
|-------------------------------------------------------------------------|
|-0-0-0-0-0-0-0-0-7-7-7-7-7-7-7-7-8-8-8-8-8-8-8-8--5-5-5------------------|
|-0-0-0-0-0-0-0-0-7-7-7-7-7-7-7-7-8-8-8-8-8-8-8-8--5-5-5------------------|
|-0-0-0-0-0-0-0-0-7-7-7-7-7-7-7-7-8-8-8-8-8-8-8-8--5-5-5--3-3-3-----------|
                                                          * * * 


Breakdown:
|-/10-10-8----/17--/10-10-8----/15--/10-10-8----/17--/10-10-8----/15------|
|----------10---------------10---------------10---------------10----------|
|-------------------------------------------------------------------------|
|-------------------------------------------------------------------------|
|-------------------------------------------------------------------------|
|-------------------------------------------------------------------------|


Solo:
|-------------------------------------------------------------------------|
|-t13p10p8h10p8h10p8h10-t13p10p8h10p8h10p8h10-t13p10p8h10-----------------|
|-------------------------------------------------------------------------|
|-------------------------------------------------------------------------|
|-------------------------------------------------------------------------|
|-------------------------------------------------------------------------|

|-t13p10p8h10p8h10p8h10-t13/15p10p8h10p8h10p8h10-t15/17-------------------|
|-------------------------------------------------------------------------|
|-------------------------------------------------------------------------|
|-------------------------------------------------------------------------|
|-------------------------------------------------------------------------|
|-------------------------------------------------------------------------|

|-------------------------------------------------------------------------|
|-------------------------------------------------------------------------|
|-t19p14p12h14p12h14p12h14-t17p14p12h14p12h14p12h14-t19p14p12h14----------|
|-------------------------------------------------------------------------|
|-------------------------------------------------------------------------|
|-------------------------------------------------------------------------|


Breakdown:
|-------------------------------------------------------------------------|
|-------------------------------------------------------------------------|
|---------7-5-4--------------------10-9-7---------------------12-10-9-----|
|-0-0-0-0-------7-5-4---------------------10-9-7--------------------------|
|---------------------7-5--7-7-7-7---------------10-8-8-8-8-8-------------|
|-------------------------------------------------------------------------|

|------------------------------------------------------10-12--------------|
|---------------------------------------------10-12-13--------------------|
|---------------12-10-9---------------9-10-12-----------------------------|
|-12-10-9---------------12-10-9-------------------------------------------|
|---------12-10-----------------12-10-------------------------------------|
|-------------------------------------------------------------------------|

|-------------------------------------------------------------------------|
|-------------------------------------------------------------------------|
|---------7-5-4--------------------10-9-7---------------------12-10-9-----|
|-0-0-0-0-------7-5-4---------------------10-9-7--------------------------|
|---------------------7-5--7-7-7-7---------------10-8-8-8-8-8-------------|
|-------------------------------------------------------------------------|

|-------------------------------------------------------------------------|
|-------------------------------------------------------------------------|
|-------------------------------------------------------------------------|
|-12-10-9-----------------------------------------------------------------|
|---------12-10-----------------------------------------------------------|
|---------------5b~-------------------------------------------------------|


Chorus:
|-------------------------------------------------------------------------|
|-------------------------------------------------------------------------|
|-------------------------------------------------------------------------|
|-0-0-0-0-0-0-0-0-7-7-7-7-7-7-7-7-8-8-8-8-8-8-8-8--5-5-5--3-3-3-----------|
|-0-0-0-0-0-0-0-0-7-7-7-7-7-7-7-7-8-8-8-8-8-8-8-8--5-5-5--3-3-3-----------|
|-0-0-0-0-0-0-0-0-7-7-7-7-7-7-7-7-8-8-8-8-8-8-8-8--5-5-5--3-3-3-----------|

|-------------------------------------------------------------------------|
|-------------------------------------------------------------------------|
|-------------------------------------------------------------------------|
|-0-0-0-0-0-0-0-0-7-7-7-7-7-7-7-7-8-8-8-8-8-8-8-8--5-5-5--3-3-3-----------|
|-0-0-0-0-0-0-0-0-7-7-7-7-7-7-7-7-8-8-8-8-8-8-8-8--5-5-5--3-3-3-----------|
|-0-0-0-0-0-0-0-0-7-7-7-7-7-7-7-7-8-8-8-8-8-8-8-8--5-5-5--3-3-3-----------|

|-------------------------------------------------------------------------|
|-------------------------------------------------------------------------|
|-------------------------------------------------------------------------|
|-0-0-0-0-0-0-0-0-7-7-7-7-7-7-7-7-8-8-8-8-8-8-8-8--5-5-5--3-3-3-----------|
|-0-0-0-0-0-0-0-0-7-7-7-7-7-7-7-7-8-8-8-8-8-8-8-8--5-5-5--3-3-3-----------|
|-0-0-0-0-0-0-0-0-7-7-7-7-7-7-7-7-8-8-8-8-8-8-8-8--5-5-5--3-3-3-----------|

|-------------------------------------------------------------------------|
|-------------------------------------------------------------------------|
|-------------------------------------------------------------------------|
|-0-0-0-0-0-0-0-0-7-7-7-7-7-7-7-7-8-8-8-8-8-8-8-8--5-5-5------------------|
|-0-0-0-0-0-0-0-0-7-7-7-7-7-7-7-7-8-8-8-8-8-8-8-8--5-5-5------------------|
|-0-0-0-0-0-0-0-0-7-7-7-7-7-7-7-7-8-8-8-8-8-8-8-8--5-5-5--3-3-3-----------|
                                                          * * * 


Outro:
|-------------------------------------------------------------------------|
|-------------------------------------------------------------------------|
|-------------------------------------------------------------------------|
|-------------------------------------------------------------------------|
|-0-0-3-0--0-3-0-6-6-5-3-5-3-3-0--0-3-0-3-0--0-6-6-5-3-5-3-3-0------------|
|-0-0-3-0--0-3-0-6-6-5-3-5-3-3-0--0-3-0-3-0--0-6-6-5-3-5-3-3-0------------|

|-------------------------------------------------------------------------|
|-/10----/10-9---/8-6~/--10p8----8----------------------------------------|
|-----10-------9--------------10---10-9-10-9-7----7-----------------------|
|----------------------------------------------10-------------------------|
|-------------------------------------------------------------------------|
|-------------------------------------------------------------------------|
                                   *  *  * *    
Tap to rate this tab
 
# A B C D E F G H I J K L M N O P Q R S T U V W X Y Z