Song name
# A B C D E F G H I J K L M N O P Q R S T U V W X Y Z

Black Veil Brides - The Legacy tab

This song is in drop C# (as most of BVB's songs). It's the most accurate tab out there (I think). 
To find out of the fastest stuff at the solo I had to watch this video where Jake 
Pitts plays it slowly: 
http://www.youtube.com/watch?v=SMtii0zTpus
The video is good to listen to if you need help with the rythm!


Intro:
|--------------------------------------------------------------|
|--------------------------------------------------------------|
|--------------------------------------------------------------|
|--------------------------------------------------------------|
|-------------12/--2-0-2-0-2-5-2-0------5-8-7-5-7--------------|
|-000-000-000-12/--2-0-2-0-2-5-2-0-0000-5-8-7-5-7--------------|
  ... ... ...                      ....

|--------------------------------------------------------------|
|--------------------------------------------------------------|
|--------------------------------------------------------------|
|---------------------8-8-8-8----------------------------------|
|-2-0-2-0-2-5-0-2-5-0-8-8-8-8--2-0-2-0-2-5-2-0------5-8-7-5-7--|
|-2-0-2-0-2-5-0-2-5-0-8-8-8-8--2-0-2-0-2-5-2-0-0000-5-8-7-5-7--|
                                               ....

|--------------------------------------------------------------|
|--------------------------------------------------------------|
|--------------------------------------------------------------|
|--------------------------------------------------------------|
|-2-0-2-0-2-5-0-------------8/--2-0-2-0-2-5-0-0000-5-8-7-5-7---|
|-2-0-2-0-2-5-0-000-000-000-8/--2-0-2-0-2-5-0-0000-5-8-7-5-7---|
                ... ... ...                   ....

|--------------------------------------------------------------|
|--------------------------------------------------------------|
|--------------------------------------------------------------|
|---------------------8-8-8-8----------------------------------|
|-2-0-2-0-2-5-0-2-5-0-8-8-8-8--2-0-2-0-2-5-2-0------5-8-7-5-7--|
|-2-0-2-0-2-5-0-2-5-0-8-8-8-8--2-0-2-0-2-5-2-0-0000-5-8-7-5-7--|
                                               ....



|--------------------------------------------------------------|
|--------------------------------------------------------------|
|------------------------------------------------7-------------|
|---------------------8-8-8-8-8-8-101010101010-----------------|
|-2-0-2-0-2-5-0-2-5-0-8-8-8-8-8-8-7-7-7-7-7-7----5-------------|
|-2-0-2-0-2-5-0-2-5-0-8-8-8-8-8-8-7-7-7-7-7-7--0---------------|
                                               .

Verse:
|--------------------------------------------------------------|
|--------------------------------------------------------------|
|--------------------------------------------------------------|
|--------------------------------------------------------------|
|-5h8p5p0-------------5h8p5p0------3h7p3p0---3-5h8p5p0---------|
|---------0-000-0-000---------0-00---------5-----------0-000-0-|
          . ... . ...         . ..         .           . ... .

|--------------------------------------------------------------|
|--------------------------------------------------------------|
|--------------------------------------------------------------|
|--------------------------------------------------------------|
|-----5h8p5p0------7h10p7p0----7-5h8p5p0-------------5h8p5p0---|
|-000---------0-00----------10-----------0-000-0-000-----------|
  ...         . ..           .           . ... . ...

|--------------------------------------------------------------|
|--------------------------------------------------------------|
|--------------------------------------------------------------|
|--------------------------------------------------------------|
|------3h7p3p0---3-5h8p5p0-------------------------------------|
|-0-00---------5-----------0-000-0-000--8888777733335555-------|
  . ..         .           . ... . ...  ................

|--------------------------------------------------------------|
|--------------------------------------------------------------|
|--------------------------------------------------------------|
|--------------------------------------------------------------|
|-5h8p5p0-------------5h8p5p0------3h7p3p0---3-5h8p5p0---------|
|---------0-000-0-000---------0-00---------5-----------0-000-0-|
          . ... . ...         . ..         .           . ... .

|--------------------------------------------------------------|
|--------------------------------------------------------------|
|--------------------------------------------------------------|
|--------------------------------------------------------------|
|-----5h8p5p0------7h10p7p0----7-5h8p5p0-------------5h8p5p0---|
|-000---------0-00----------10-----------0-000-0-000-----------|
  ...         . ..           .           . ... . ...

|--------------------------------------------------------------|
|--------------------------------------------------------------|
|--------------------------------------------------------------|
|--------------------------------------101010107777------------|
|------3h7p3p0---3-5h8p5p0-------------------------888810101010|
|-0-00---------5-----------0-000-0-000-------------------------|
  . ..         .           . ... . ...  . . . ......... . . .

Pre-Chorus:
|--------------------------------------------------------------|
|--------------------------------------------------------------|
|--------------------------------------------------------------|
|-8-------8-10-10-8--10------------10--------------------------|
|-8-------8----------10------------10-12-13-12-10-12~----------|
|-8-88888-8----------10-1010101010-10--------------------------|
    .....                . . . . .

Chorus:
|--------------------------------------------------------------|
|--------------------------------------------------------------|
|--------------------------------------------------------------|
|-00-0-00-0-0-33-3-33-3-3-55-5-55-5-5-888888-101010101010------|
|-00-0-00-0-0-33-3-33-3-3-55-5-55-5-5-888888-101010101010------|
|-00-0-00-0-0-33-3-33-3-3-55-5-55-5-5-888888-101010101010------|

|--------------------------------------------------------------|
|--------------------------------------------------------------|
|--------------------------------------------------------------|
|-00-0-00-0-0-33-3-33-3-3-55-5-55-5-5-888888-101010101010------|
|-00-0-00-0-0-33-3-33-3-3-55-5-55-5-5-888888-101010101010------|
|-00-0-00-0-0-33-3-33-3-3-55-5-55-5-5-888888-101010101010------|

Pre-Verse:
|--------------------------------------------------------------|
|--------------------------------------------------------------|
|--------------------------------------------------------------|
|-------------2/3/2p0-----5-------------2/3/2p0-1p0-1/2/1p0----|
|-1p0-1p0-----2/3/2p0-----5--1p0-1p0----2/3/2p0-1p0-1/2/1p0----|
|-1p0-1p0-00----------000----1p0-1p0-00------------------------|
          ..          ...            ..

|--------------------------------------------------------------|
|--------------------------------------------------------------|
|--------------------------------------------------------------|
|-------------2/3/2p0-----5-------------2/3/2p0-1p0-1/2/1p0----|
|-1p0-1p0-----2/3/2p0-----5--1p0-1p0----2/3/2p0-1p0-1/2/1p0----|
|-1p0-1p0-00----------000----1p0-1p0-00------------------------|
          ..          ...            ..

Verse:
|--------------------------------------------------------------|
|--------------------------------------------------------------|
|--------------------------------------------------------------|
|--------------------------------------------------------------|
|-5h8p5p0-------------5h8p5p0------3h7p3p0---3-5h8p5p0---------|
|---------0-000-0-000---------0-00---------5-----------0-000-0-|
          . ... . ...         . ..         .           . ... .

|--------------------------------------------------------------|
|--------------------------------------------------------------|
|--------------------------------------------------------------|
|--------------------------------------------------------------|
|-----5h8p5p0------7h10p7p0----7-5h8p5p0-------------5h8p5p0---|
|-000---------0-00----------10-----------0-000-0-000-----------|
  ...         . ..           .           . ... . ...

|--------------------------------------13-12-10----10-12-13-12-|
|-----------------------------------------------13-------------|
|--------------------------------------------------------------|
|--------------------------------------------------------------|
|------3h7p3p0---3-5h8p5p0-------------------------------------|
|-0-00---------5-----------0-000-0-000-------------------------|
  . ..         .           . ... . ...

|-10-----------------------------------------------------------|
|----13-11-----------------------------------------------------|
|----------12-14-----------------------------------------------|
|--------------------------------------------------------------|
|----------------------------5h8p5p0------3h7p3p0---3-5h8p5p0--|
|----------------0-000-0-000---------0-00---------5------------|
                 . ... . ...         . ..         .

|--------------------------------------------------------------|
|--------------------------------------------------------------|
|--------------------------------------------------------------|
|--------------------------------------------------------------|
|-------------5h8p5p0------7h10p7p0----7-5h8p5p0---------------|
|-0-000-0-000---------0-00----------10-----------0-000-0-000---|
  . ... . ...         . ..           .           . ... . ...

|--------------------------------------------------------------|
|--------------------------------------------------------------|
|--------------------------------------------------------------|
|----------------------------------------------101010107777----|
|-5h8p5p0------3h7p3p0---3-5h8p5p0-------------------------8888|
|---------0-00---------5-----------0-000-0-000-----------------|
          . ..         .           . ... . ...  . . . .........

|--------------------------------------------------------------|
|--------------------------------------------------------------|
|--------------------------------------------------------------|
|--------------------------------------------------------------|
|-10101010-----------------------------------------------------|
|--------------------------------------------------------------|
   . . . 

Pre-Chorus:
|--------------------------------------------------------------|
|--------------------------------------------------------------|
|--------------------------------------------------------------|
|-8------8-10-10-8--10----------10-----------------------------|
|-8------8----------10----------10-12-13-12-10-12~-------------|
|-8-8888-8----------10-10101010-10-----------------------------|
    ....                . . . .


Chorus:
|--------------------------------------------------------------|
|--------------------------------------------------------------|
|--------------------------------------------------------------|
|-00-0-00-0-0-33-3-33-3-3-55-5-55-5-5-888888-101010101010------|
|-00-0-00-0-0-33-3-33-3-3-55-5-55-5-5-888888-101010101010------|
|-00-0-00-0-0-33-3-33-3-3-55-5-55-5-5-888888-101010101010------|

|--------------------------------------------------------------|
|--------------------------------------------------------------|
|--------------------------------------------------------------|
|-00-0-00-0-0-33-3-33-3-3-55-5-55-5-5-888888-101010101010------|
|-00-0-00-0-0-33-3-33-3-3-55-5-55-5-5-888888-101010101010------|
|-00-0-00-0-0-33-3-33-3-3-55-5-55-5-5-888888-101010101010------|

|--------------------------------------------------------------|
|--------------------------------------------------------------|
|--------------------------------------------------------------|
|-00-0-00-0-0-33-3-33-3-3-55-5-55-5-5-888888-101010101010------|
|-00-0-00-0-0-33-3-33-3-3-55-5-55-5-5-888888-101010101010------|
|-00-0-00-0-0-33-3-33-3-3-55-5-55-5-5-888888-101010101010------|

|--------------------------------------------------------------|
|--------------------------------------------------------------|
|--------------------------------------------------------------|
|-00-0-00-0-0-33-3-33-3-3-55-5-55-5-5-888888-101010101010------|
|-00-0-00-0-0-33-3-33-3-3-55-5-55-5-5-888888-101010101010------|
|-00-0-00-0-0-33-3-33-3-3-55-5-55-5-5-888888-101010101010------|

Breakdown:
|-----------------------------------------------------------------|
|-----------------------------------------------------------------|
|-----------------------------------------------------------------|
|-----------------------------------------------------------------|
|---5h8---5h8---5h8---5h8---5h8p5---5h8---5h8---5h8---5h8---5h8p5-|
|-0-----0-----0-----0-----0-------0-----0-----0-----0-----0-------|
  .     .     .     .     .       .     .     .     .     .

|-----------------------------------------------------------------|
|-----------------------------------------------------------------|
|----------------------------------------7h10---7h10---7h10---7h10|
|---7h10---7h10---7h10---7h10---7h10p7----------------------------|
|-----------------------------------------------------------------|
|-0------0------0------0------0--------0------0------0------0-----|
  .      .      .      .      .        .      .      .      .

|-----------------------------------------------------------------|
|-----------------------------------------------------------------|
|---7h10----------------------------------------------------------|
|-----------------------------------------------------------------|
|----------5h8---5h8---5h8---5h8---5h8p5---5h8---5h8---5h8---5h8--|
|-0------0-----0-----0-----0-----0-------0-----0-----0-----0------|
  .      .     .     .     .     .       .     .     .     .
|-----------------------------------------------------------------|
|-----------------------------------------------------------------|
|------------------------------------------------7h10---7h10------|
|-----------7h10---7h10---7h10---7h10---7h10p7--------------------|
|---5h8p5---------------------------------------------------------|
|-0-------0------0------0------0------0--------0------0-----------|
  .       .      .      .      .      .        .      .

|-----------------------------------------------------------------|
|-----------------------------------------------------------------|
|---7h10---7h10p7-------------------------------------------------|
|-----------------------------------------------------------------|
|-----------------------------------------------------------------|
|-0------0--------000000000-00000--000000000-0000-0-0-0-13/-------|
  .      .        ......... .....  ......... .... . . .

|-----------------------------------------------------------------|
|-----------------------------------------------------------------|
|-----------------------------------------------------------------|
|-----------------------------------------------------------------|
|-----------------------------------------------------------------|
|-000000000-00000--000000000-0000-0-0-0-13/-----------------------|
  ......... .....  ......... .... . . .

|-----------------------------------------------------------------|
|-----------------------------------------------------------------|
|-----------------------------------------------------------------|
|-----------------------------------------------------------------|
|---5h8---5h8---5h8---5h8---5h8p5---5h8---5h8---5h8---5h8---5h8p5-|
|-0-----0-----0-----0-----0-------0-----0-----0-----0-----0-------|
  .     .     .     .     .       .     .     .     .     .

|-----------------------------------------------------------------|
|-----------------------------------------------------------------|
|----------------------------------------7h10---7h10---7h10---7h10|
|---7h10---7h10---7h10---7h10---7h10p7----------------------------|
|-----------------------------------------------------------------|
|-0------0------0------0------0--------0------0------0------0-----|
  .      .      .      .      .        .      .      .      .

|-----------------------------------------------------------------|
|-----------------------------------------------------------------|
|---7h10~---------------------------------------------------------|
|---------------------2/3/2p0-----5~------------------------------|
|----------1p0-1p0----2/3/2p0-----5~------------------------------|
|-0--------1p0-1p0-00---------000---------------------------------|
  .                ..         ...

Solo:
|---------15-17-15-14-15-14---------------12-------------12-------|
|-15b-15b-------------------15-17------12----15p12-----12---15p12-|
|----------------------------------14b-------------14b------------|
|-----------------------------------------------------------------|
|-----------------------------------------------------------------|
|-----------------------------------------------------------------|

|--------12-------------------------------------------------------|
|-----12----15p12---------15-12-----------------------------------|
|-14b-------------14b~----------14h15p14-14-12----12--------------|
|----------------------------------------------14----14-12-14*----|
|-----------------------------------------------------------------|
|-----------------------------------------------------------------|

|-----------------------------------------------------------------|
|-12-11-10-8---8-10-11-12-11-10-8---8-10-11-12-11-10-8---8-10-11--|
|------------9--------------------9--------------------9----------|
|-----------------------------------------------------------------|
|-----------------------------------------------------------------|
|-----------------------------------------------------------------|

|-------------------------------------t15p12p10-------------------|
|-12-11-10-8---8-10-11-12---t15p12p10-----------t15p12p10---------|
|------------9----------------------------------------------------|
|-----------------------------------------------------------------|
|-----------------------------------------------------------------|
|-----------------------------------------------------------------|

|-t15p12p10-----------t15p12p10-15~---15p12----12-----------------|
|-----------t15p12p10-----------15~---------15----15p12-15p12-----|
|-------------------------------------------------------------14--|
|-----------------------------------------------------------------|
|-----------------------------------------------------------------|
|-----------------------------------------------------------------|

|------------------------------------------------------------------|
|-12---------------------------------------------------------------|
|----14p12-14p12----12---------------------------------------------|
|----------------14----14p12-14p12----12---------------------------|
|----------------------------------14----14p12-14p12-10-12-10----12|
|-------------------------------------------------------------14---|

|-------------------------------------------------------------------|
|----------------------------------------------------12-14-15-14-12-|
|-------------------------------11-12-14-12-11-12-14----------------|
|----------11-12-14-12-11-12-14-------------------------------------|
|-10-12-14----------------------------------------------------------|
|-------------------------------------------------------------------|

|-------------------------------------------------------------------|
|-14-15-14-12-14-15-15/17-/10-/12-/6-/8-----------------------------|
|-------------------------------------------------------------------|
|-------------------------------------------------------------------|
|-------------------------------------------------------------------|
|-------------------------------------------------------------------|


After solo:
|--------------------------------------------------------------------|
|--------------------------------------------------------------------|
|--------------------------------------------------------------------|
|-0---------------3---------------5---------------8-------10---------|
|-0---------------3---------------5---------------8-------10---------|
|-0-0-0-0-0-0-0-0-3-3-3-3-3-3-3-3-5-5-5-5-5-5-5-5-8-8-8-8-10-10-10-10|
    . . . . . . .   . . . . . . .   . . . . . . .   . . .     .  .  .

|--------------------------------------------------------------|
|--------------------------------------------------------------|
|-------------------------------7p5---5------------------------|
|-0~--/////////---------------------7---7p5-7p5---5------------|
|-0~--/////////-0------0------------------------8---8p5--------|
|-0~--/////////-0-0000-0-0000----------------------------------|
      Pickslide   ....   ....

|--------------------------------------------------------------|
|--------------------------------------------------------------|
|--------------------------------------------------------------|
|--------------------------------------------------------------|
|-5------5------8------8------0------0-------------------------|
|-5-5555-5-5555-8-8888-8-8888-0-0000-0-0000--------------------|
    ....   ....   ....   ....   ....   ....

|--------------------------------------------------------------|
|--------------------------------------------------------------|
|-7p5---5------------------------------------------------------|
|-----7---7p5-7p5---5------------------------------------------|
|-----------------8---8p5--5------5------8-7-5-3-0-------------|
|--------------------------5-5555-5-5555-8-7-5-3-0-------------|
                             ....   ....

Chorus:
|--------------------------------------------------------------|
|--------------------------------------------------------------|
|--------------------------------------------------------------|
|-00-0-00-0-0-33-3-33-3-3-55-5-55-5-5-888888-101010101010------|
|-00-0-00-0-0-33-3-33-3-3-55-5-55-5-5-888888-101010101010------|
|-00-0-00-0-0-33-3-33-3-3-55-5-55-5-5-888888-101010101010------|

|--------------------------------------------------------------|
|--------------------------------------------------------------|
|--------------------------------------------------------------|
|-00-0-00-0-0-33-3-33-3-3-55-5-55-5-5-888888-101010101010------|
|-00-0-00-0-0-33-3-33-3-3-55-5-55-5-5-888888-101010101010------|
|-00-0-00-0-0-33-3-33-3-3-55-5-55-5-5-888888-101010101010------|

|--------------------------------------------------------------|
|--------------------------------------------------------------|
|--------------------------------------------------------------|
|-00-0-00-0-0-33-3-33-3-3-55-5-55-5-5-888888-101010101010------|
|-00-0-00-0-0-33-3-33-3-3-55-5-55-5-5-888888-101010101010------|
|-00-0-00-0-0-33-3-33-3-3-55-5-55-5-5-888888-101010101010------|

|--------------------------------------------------------------|
|--------------------------------------------------------------|
|--------------------------------------------------------------|
|-00-0-00-0-0-33-3-33-3-3-55-5-55-5-5-888888-101010101010------|
|-00-0-00-0-0-33-3-33-3-3-55-5-55-5-5-888888-101010101010------|
|-00-0-00-0-0-33-3-33-3-3-55-5-55-5-5-888888-101010101010------|

Outro:
|--------------------------------------------------------------|
|--------------------------------------------------------------|
|--------------------------------------------------------------|
|-------------2/3/2p0-----5-------------2/3/2p0-1p0-1/2/1p0----|
|-1p0-1p0-----2/3/2p0-----5--1p0-1p0----2/3/2p0-1p0-1/2/1p0----|
|-1p0-1p0-00----------000----1p0-1p0-00------------------------|
          ..          ...            ..

|--------------------------------------------------------------|
|--------------------------------------------------------------|
|--------------------------------------------------------------|
|-------------2/3/2p0-----5-------------2/3/2p0-1p0-1----------|
|-1p0-1p0-----2/3/2p0-----5--1p0-1p0----2/3/2p0-1p0-1----------|
|-1p0-1p0-00----------000----1p0-1p0-00------------------------|
          ..          ...            ..
Tap to rate this tab
 
# A B C D E F G H I J K L M N O P Q R S T U V W X Y Z