Song name
# A B C D E F G H I J K L M N O P Q R S T U V W X Y Z

Black Veil Brides - The Legacy tab

-------------------------------------------------------------------------------
                             THE LEGACY - Black Veil Brides
-------------------------------------------------------------------------------
Tabbed by: ironmanben
Email: bentrooper@gmail.com

Tuning: eb Bb Gb Db Ab Db

guitar 1 - Jake Pitts - lead (left speaker)
guitar 2 - Jinxx - rhythm (right speaker)
guitar 3 - chorus only overdub
guitar 4 - chorus only overdub
guitar 5 - chorus only overdub
guitar 6 - Jake Pitts - lead & harmonies
guitar 7 - Jake Pitts - solo

intro:
(guitar 1:)
eb|-----------------|
Bb|-----------------|
Gb|-----------------|
Db|-----------------|
Ab|-000-000-000-----|
Db|-000-000-000-8\\-|
--| (guitar 2:)     |
eb|-----------------|
Bb|-----------------|
Gb|-----------------|
Db|-----------------|
Ab|-000-000-000-----|
Db|-000-000-000-8\\-|


main riff:
(guitars 1 & 2:)
eb|----------------------------------|---------------------------------|
Bb|----------------------------------|---------------------------------|
Gb|----------------------------------|---------------------------------|
Db|-2-0-2-0-2-5-2-2------5-7-8-7-5-7-|-2-0-2-0-2-5-2-0-2-5-2-0-8-8-8-8-|
Ab|-2-0-2-0-2-5-2-2-000--5-7-8-7-5-7-|-2-0-2-0-2-5-2-0-2-5-2-0-8-8-8-8-|
Db|-2-0-2-0-2-5-2-2-000--5-7-8-7-5-7-|-2-0-2-0-2-5-2-0-2-5-2-0-8-8-8-8-|

eb|----------------------------------|---------------------------------|
Bb|----------------------------------|---------------------------------|
Gb|----------------------------------|---------------------------------|
Db|-2-0-2-0-2-5-2-2------5-7-8-7-5-7-|-2-0-2-0-2-5-2-------------------|
Ab|-2-0-2-0-2-5-2-2-000--5-7-8-7-5-7-|-2-0-2-0-2-5-2-------------------|
Db|-2-0-2-0-2-5-2-2-000--5-7-8-7-5-7-|-2-0-2-0-2-5-2-0-000-000-000-8\\-|

eb|----------------------------------|---------------------------------|
Bb|----------------------------------|---------------------------------|
Gb|----------------------------------|---------------------------------|
Db|-2-0-2-0-2-5-2-2------5-7-8-7-5-7-|-2-0-2-0-2-5-2-0-2-5-2-0-8-8-8-8-|
Ab|-2-0-2-0-2-5-2-2-000--5-7-8-7-5-7-|-2-0-2-0-2-5-2-0-2-5-2-0-8-8-8-8-|
Db|-2-0-2-0-2-5-2-2-000--5-7-8-7-5-7-|-2-0-2-0-2-5-2-0-2-5-2-0-8-8-8-8-|

eb|----------------------------------|-------------------------|
Bb|----------------------------------|-------------------------|
Gb|----------------------------------|-------------------------|
Db|-2-0-2-0-2-5-2-2------5-7-8-7-5-7-|-2-0-2-0-2-5-2-0-2-5-2-0-|
Ab|-2-0-2-0-2-5-2-2-000--5-7-8-7-5-7-|-2-0-2-0-2-5-2-0-2-5-2-0-|
Db|-2-0-2-0-2-5-2-2-000--5-7-8-7-5-7-|-2-0-2-0-2-5-2-0-2-5-2-0-|

eb|---------------------------------|
Bb|---------------------------------|
Gb|-------------5-5-5-5-5-5---------|
Db|-8-8-8-8-8-8-7-7-7-7-7-7---------|
Ab|-8-8-8-8-8-8---------------------|
Db|-8-8-8-8-8-8-------------0-12\\--|



verse:
(guitar 1:)
eb|-------------------|-----------------|
Bb|-------------------|-----------------|
Gb|-------------------|-----------------|
Db|-0h3p0-------------|-3-----3-2-------|
Ab|-------0-0-0-0-000-|-5-0-0-5-3p0---3-|
Db|-------0-0-0-0-000-|---0-0-0-----3---|
--| (guitar 2:)       |                 |
eb|-------------------|-----------------|
Bb|-------------------|-----------------|
Gb|-------------------|-----------------|
Db|-0h3p0-------------|-----------------|
Ab|-------5-5-5-5-555-|-5-5-5-5-3-0-0-3-|
Db|-------0-0-0-0-000-|---0-0-0---0-0---|


eb|-------------------|---------------------|
Bb|-------------------|---------------------|
Gb|-------------------|---------------------|
Db|-0h3p0-------------|-3p0-----3-3h5p3---3-|
Ab|-------0-000-0-000-|-----3-0---------3---|
Db|-------0-000-0-000-|-----0-0-------------|
--|                   |                     |
eb|-------------------|---------------------|
Bb|-------------------|---------------------|
Gb|-------------------|---------------------|
Db|-0h3p0-------------|-3p0---------2-----2-|
Ab|-------5-555-5-555-|-----3p0-5-5---5-3---|
Db|-------0-000-0-000-|---------0-0---0-----|


eb|-------------------|----------------------|
Bb|-------------------|----------------------|
Gb|-------------------|----------------------|
Db|-0h3p0-------------|-3p0------------------|
Ab|-------0-000-0-000-|----3p0-0-0-3h7p0-0-3-|
Db|-------0-000-0-000-|--------0-0-----------|
--|                   |                      |
eb|-------------------|----------------------|
Bb|-------------------|----------------------|
Gb|-------------------|----------------------|
Db|-0h3p0-------------|-3p0------------------|
Ab|-------5-555-5-555-|----3p0---3-3h7p3---3-|
Db|-------0-000-0-000-|--------0---------0---|

eb|-------------------|---------------------|
Bb|-------------------|---------------------|
Gb|-------------------|---------------------|
Db|-0h3p0-------------|---------------------|
Ab|-------0-000-0-000-|---------------------|
Db|-------0-000-0-000-|-8888-7777-3333-5555-|
--|                   |                     |
eb|-------------------|---------------------|
Bb|-------------------|---------------------|
Gb|-------------------|---------------------|
Db|-------------------|---------------------|
Ab|-5-----0-000-0-000-|-8888-7777-3333-5555-|
Db|-------0-000-0-000-|---------------------|


eb|-------------------|-----------------|
Bb|-------------------|-----------------|
Gb|-------------------|-----------------|
Db|-0h3p0-------------|-3-----3-5-------|
Ab|-------0-0-0-0-000-|-5-0-0-5-3p0---3-|
Db|-------0-0-0-0-000-|---0-0-0-----3---|
--|                   |                 |
eb|-------------------|-----------------|
Bb|-------------------|-----------------|
Gb|-------------------|-----------------|
Db|-3p0---------------|-----------------|
Ab|-5-----0-000-0-000-|-5p0---5-7p5----7|
Db|-------0-000-0-000-|----0-0------0-0-|


eb|-------------------|---------------------|
Bb|-------------------|---------------------|
Gb|-------------------|---------------------|
Db|-0h3p0-------------|-3p0-----3-3h5p3---3-|
Ab|-------0-000-0-000-|-----3-0---------3---|
Db|-------0-000-0-000-|-----0-0-------------|
--|                   |                     |
eb|-------------------|-------------------|-|
Bb|-------------------|-------------------|
Gb|-------------------|-------------------|
Db|-------------------|-------------------|
Ab|-8p5---0-0-0-0-000-|-8p5---8-10-0----5-|
Db|-------0-0-0-0-000-|-----0--------0----|


eb|-------------------|----------------------|
Bb|-------------------|----------------------|
Gb|-------------------|----------------------|
Db|-0h3p0-------------|-3p0------------------|
Ab|-------0-000-0-000-|----3p0-0-0-3h7p0-0-3-|
Db|-------0-000-0-000-|--------0-0-----------|
--|                   |                      |
eb|-------------------|-----------------| - -|
Bb|-------------------|-----------------|
Gb|-------------------|-----------------|
Db|-------------------|-----------------|
Ab|-8p5---0-0-0-0-000-|-8-----8-5-----8-|
Db|-------0-0-0-0-000-|---0-0-----0-0---|


eb|-------------------|---------------------|
Bb|-------------------|---------------------|
Gb|-------------------|---------------------|
Db|-0h3p0-------------|-8888-7777-3333-5555-|
Ab|-------0-000-0-000-|---------------------|
Db|-------0-000-0-000-|---------------------|
--|                   |                     |
eb|-------------------|---------------------|
Bb|-------------------|---------------------|
Gb|-------------------|---------------------|
Db|-------------------|---------------------|
Ab|-5---0-0-000-0-000-|-8888-7777-3333-5555-|
Db|-----0-0-000-0-000-|---------------------|



pre-chorus:
(guitar 1:)
eb|-------------------------|--------------------------------|
Bb|-------------------------|--------------------------------|
Gb|-------------------------|--------------------------------|
Db|-8-888-8-8-8-12----------|-10-101010-10-10-10-10----------|
Ab|-8-888-8-8-8-12--12--10--|-12-121212-12-12-12-12--12--8^--|
Db|-8-888-8-8-8---8---8---8-|-10-101010-10-10-10-------------|
--| (guitar 2:)             |                                |
eb|-------------------------|--------------------------------|
Bb|-------------------------|--------------------------------|
Gb|-------------------------|--------------------------------|
Db|-8-888-8-8-8-7-----------|-10-101010-10-10-10-------------|
Ab|-8-888-8-8-8-8---8---5---|-10-101010-10-10-10-12-12p10-12-|
Db|-8-888-8-8-8-------------|-10-101010-10-10-10-------------|



chorus:
The chorus has many additional layers of guitar, much more
than the rest of the song.  It is unclear who plays what here.
I'll tab what I hear as best I can, but it's hard to get accurate
because of the low volume of some of the higher parts.  Very subtle.
(guitar 1:)
eb|-------------------------------------------------|
Bb|-------------------------------------------------|
Gb|-------------------------------------------------|
Db|-0-0-3p0-3p0-0-0-0-0-0-0-3-3-3-3-3-3-3---3---3---|
Ab|-0-0-3p0-3p0-0-0-0-0-0-0-3-3-3-3-3-3-3---3---3---|
Db|-0-0-3p0-3p0-0-0-0-0-0-0-3-3-3-3-3-3-3---3---3---|
--| (guitar 2:)                                     |
eb|-------------------------------------------------|
Bb|-------------------------------------------------|
Gb|-------------------------------------------------|
Db|-0---0-0---0-0---0---0---3---3-3---3-3---3---3---|
Ab|-0---0-0---0-0---0---0---3---3-3---3-3---3---3---|
Db|-0---0-0---0-0---0---0---3---3-3---3-3---3---3---|
--| (guitar 3:)                                     |
eB|-------------------------------------------------|
Bb|-------------------------------------------------|
Gb|-------------------------5-----------5-----------|
Db|-0-0-2-3-2-0-3-3-3-3-3-3---7-7-7-7-7---7-7-7-7-7-|
Ab|-------------------------------------------------|
Db|-------------------------------------------------|
--| (guitar 4:)                                     |
eb|-------------------------------------------------|
Bb|-------------------------------------------------|
Gb|-------------------------5-----------5-----------|
Db|-------------3-----------------------------------|
Ab|-------------------------------------------------|
Db|-------------------------------------------------|
--| (guitar 5:)                                     |
eb|-------------------------------------------------|
Bb|-----------------3-----------------------3-------|
Gb|-----5-------5-------5-------5-------5-------5---|
Db|-0---------0-------------3---------3-------------|
Ab|-------------------------------------------------|
Db|-------------------------------------------------|
--| (guitar 6:)                                     |
eb|-------------------------------------------------|
Bb|-------------------------------------------------|
Gb|-------------------------5-----5-----5-------5---|
Db|-------------3-------3-------7-----------7-------|
Ab|-----------------5-------------------------------|
Db|-------------------------------------------------|



eb|-------------------------------------------------|
Bb|-------------------------------------------------|
Gb|-------------------------------------------------|
Db|-5---5-5-5-5-5---5---5---8-8-8-8-8-8-101010101010|
Ab|-5---5-5-5-5-5---5---5---8-8-8-8-8-8-101010101010|
Db|-5---5-5-5-5-5---5---5---8-8-8-8-8-8-101010101010|
--|                                                 |
eb|-------------------------------------------------|
Bb|-------------------------------------------------|
Gb|-------------------------------------------------|
Db|-5---5-5---5-5---5---5---8---8---8---10--10--10--|
Ab|-5---5-5---5-5---5---5---8---8---8---10--10--10--|
Db|-5---5-5---5-5---5---5---8---8---8---10--10--10--|
--|                                                 |
eb|-------------------------------------------------|
Bb|-------------------------151515171717151515131313|
Gb|-------------------------------------------------|
Db|-------------------------------------------------|
Ab|-------------------------------------------------|
Db|-------------------------------------------------|
--|                                                 |
eb|-------------------------131313171717131313121212|
Bb|-------------------------------------------------|
Gb|-------------------------------------------------|
Db|-------------------------------------------------|
Ab|-------------------------------------------------|
Db|-------------------------------------------------|
--|                                                 |
eb|-------------------------------------------------|
Bb|-----------------5-------------------------------|
Gb|-----7-------7-------7--10--101012p1012-121214p12|
Db|-5---------5------------8---8-8-8----10-101010---|
Ab|-------------------------------------------------|
Db|-------------------------------------------------|
--|                                                 |
eb|-------------------------------------------------|
Bb|-------------------------------------------------|
Gb|-7-7-7-7---7-7---7---7---101010101010121212121212|
Db|-------------------------------------------------|
Ab|-------------------------------------------------|
Db|-------------------------------------------------|



eb|-------------------------------------------------|
Bb|-------------------------------------------------|
Gb|-------------------------------------------------|
Db|-0-0-3p0-3p0-0-0-0-0-0-0-3-3-3-3-3-3-3---3---3---|
Ab|-0-0-3p0-3p0-0-0-0-0-0-0-3-3-3-3-3-3-3---3---3---|
Db|-0-0-3p0-3p0-0-0-0-0-0-0-3-3-3-3-3-3-3---3---3---|
--|                                                 |
eb|-------------------------------------------------|
Bb|-------------------------------------------------|
Gb|-------------------------------------------------|
Db|-0-0-0-0---0-0---0---0---3-3-3-3---3-3---3---3---|
Ab|-0-0-0-0---0-0---0---0---3-3-3-3---3-3---3---3---|
Db|-0-0-0-0---0-0---0---0---3-3-3-3---3-3---3---3---|
--|                                                 |
eB|-------------------------------------------------|
Bb|-------------------------------------------------|
Gb|-------------------------5-----------5-----------|
Db|-0-0-2-3-2-0-3-3-3-3-3-3---7-7-7-7-7---7-7-7-7-7-|
Ab|-------------------------------------------------|
Db|-------------------------------------------------|
--|                                                 |
eb|-------------------------------------------------|
Bb|-------------------------------------------------|
Gb|-------------------------5-----------5-----------|
Db|-------------3-----------------------------------|
Ab|-------------------------------------------------|
Db|-------------------------------------------------|
--|                                                 |
eb|-------------------------------------------------|
Bb|-----------------3-----------------------3-------|
Gb|-----5-------5-------5-------5-------5-------5---|
Db|-0---------0-------------3---------3-------------|
Ab|-------------------------------------------------|
Db|-------------------------------------------------|
--|                                                 |
eb|-------------------------------------------------|
Bb|-------------------------------------------------|
Gb|-14----------------------5-----5-----5-------5---|
Db|-------------3-------3-------7-----------7-------|
Ab|-----------------5-------------------------------|
Db|-------------------------------------------------|



eb|-------------------------------------------------|
Bb|-------------------------------------------------|
Gb|-------------------------------------------------|
Db|-5---5-5-5-5-5---5---5---8-8-8-8-8-8-101010101010|
Ab|-5---5-5-5-5-5---5---5---8-8-8-8-8-8-101010101010|
Db|-5---5-5-5-5-5---5---5---8-8-8-8-8-8-101010101010|
--|                                                 |
eb|-------------------------------------------------|
Bb|-------------------------------------------------|
Gb|-------------------------------------------------|
Db|-5-5-5-5---5-5---5---5---8---8---8---10--10--10--|
Ab|-5-5-5-5---5-5---5---5---8---8---8---10--10--10--|
Db|-5-5-5-5---5-5---5---5---8---8---8---10--10--10--|
--|                                                 |
eb|-------------------------------------------------|
Bb|-------------------------151515171717151515131313|
Gb|-------------------------------------------------|
Db|-------------------------------------------------|
Ab|-------------------------------------------------|
Db|-------------------------------------------------|
--|                                                 |
eb|-------------------------131313171717131313121212|
Bb|-------------------------------------------------|
Gb|-------------------------------------------------|
Db|-------------------------------------------------|
Ab|-------------------------------------------------|
Db|-------------------------------------------------|
--|                                                 |
eb|-------------------------------------------------|
Bb|-----------------5-------------------------------|
Gb|-----7-------7-------7--10--101012p1012-121214p12|
Db|-5---------5------------8---8-8-8----10-101010---|
Ab|-------------------------------------------------|
Db|-------------------------------------------------|
--|                                                 |
eb|-------------------------------------------------|
Bb|-------------------------------------------------|
Gb|-7-7-7-7---7-7---7---7---101010101010121212121212|
Db|-------------------------------------------------|
Ab|-------------------------------------------------|
Db|-------------------------------------------------|



bridge 1:
(guitar 1:)
eb|---------------------------------|
Bb|---------------------------------|
Gb|---------------------------------|
Db|-1p0-1p0-----2/3\2p0-0-0-0-5\----|
Ab|-1p0-1p0-0-0-2/3\2p0-0-0-0-5\----|
Db|-1p0-1p0-0-0---------0-0-0-5\----|
--| (guitar 2:)                     |
eb|---------------------------------|
Bb|---------------------------------|
Gb|---------------------------------|
Db|-1p0-1p0-------------------------|
Ab|-1p0-1p0-------------------------|
Db|-1p0-1p0-------------------------|


eb|---------------------------------|
Bb|---------------------------------|
Gb|---------------------3-----------|
Db|-1p0-1p0-----2/3\2p0-3---3---3---|
Ab|-1p0-1p0-0-0-2/3\2p0-1p0-1/2\1\0-|
Db|-1p0-1p0-0-0---------------------|
--|                                 |
eb|---------------------------------|
Bb|---------------------------------|
Gb|---------------------3-----------|
Db|-1p0-1p0-------------3---3---3---|
Ab|-1p0-1p0-------------1p0-1/2\1\0-|
Db|-1p0-1p0-------------------------|


eb|---------------------------------|
Bb|---------------------------------|
Gb|---------------------------------|
Db|-1p0-1p0-----2/3\2p0-0-0-0-5\----|
Ab|-1p0-1p0-0-0-2/3\2p0-0-0-0-5\----|
Db|-1p0-1p0-0-0---------0-0-0-5\----|
--|                                 |
eb|---------------------------------|
Bb|---------------------------------|
Gb|---------------------------------|
Db|-1p0-1p0-----2/3\2p0-0-0-0-5\----|
Ab|-1p0-1p0-0-0-2/3\2p0-0-0-0-5\----|
Db|-1p0-1p0-0-0---------0-0-0-5\----|


eb|---------------------------------|
Bb|---------------------------------|
Gb|---------------------3-----------|
Db|-1p0-1p0-----2/3\2p0-3---3---3---|
Ab|-1p0-1p0-0-0-2/3\2p0-1p0-1/2\1\0-|
Db|-1p0-1p0-0-0---------------------|
--|                                 |
eb|---------------------------------|
Bb|---------------------------------|
Gb|---------------------3-----------|
Db|-1p0-1p0-----2/3\2p0-3---3---3---|
Ab|-1p0-1p0-0-0-2/3\2p0-1p0-1/2\1\0-|
Db|-1p0-1p0-0-0---------------------|


verse 2:
(guitar 1:)
eb|-------------------|-----------------|
Bb|-------------------|-----------------|
Gb|-------------------|-----------------|
Db|-0h3p0-------------|-3-----3-2-------|
Ab|-------0-0-0-0-000-|-5-0-0-5-3p0---3-|
Db|-------0-0-0-0-000-|---0-0-0-----3---|
--| (guitar 2:)       |                 |
eb|-------------------|-----------------|
Bb|-------------------|-----------------|
Gb|-------------------|-----------------|
Db|-0h3p0-------------|-----------------|
Ab|-------5-5-5-5-555-|-5-5-5-5-3-0-0-3-|
Db|-------0-0-0-0-000-|---0-0-0---0-0---|


eb|-------------------|---------------------|
Bb|-------------------|---------------------|
Gb|-------------------|---------------------|
Db|-0h3p0-------------|-3p0-----3-3h5p3---3-|
Ab|-------0-000-0-000-|-----3-0---------3---|
Db|-------0-000-0-000-|-----0-0-------------|
--|                   |                     |
eb|-------------------|---------------------|
Bb|-------------------|---------------------|
Gb|-------------------|---------------------|
Db|-0h3p0-------------|-3p0---------2-----2-|
Ab|-------5-555-5-555-|-----3p0-5-5---5-3---|
Db|-------0-000-0-000-|---------0-0---0-----|


eb|-------------------|----------------------|
Bb|-------------------|----------------------|
Gb|-------------------|----------------------|
Db|-0h3p0-------------|-3p0------------------|
Ab|-------0-000-0-000-|----3p0-0-0-3h7p0-0-3-|
Db|-------0-000-0-000-|--------0-0-----------|
--|                   |                      |
eb|-------------------|----------------------|
Bb|-------------------|----------------------|
Gb|-------------------|----------------------|
Db|-0h3p0-------------|-3p0------------------|
Ab|-------5-555-5-555-|----3p0---3-3h7p3---3-|
Db|-------0-000-0-000-|--------0---------0---|

eb|-------------------|----------------------------------------|
Bb|-------------------|-18-17-15----15-17-18-17-15-------------|
Gb|-------------------|----------17----------------15-17-12/14-|
Db|-0h3p0-------------|----------------------------------------|
Ab|-------0-000-0-000-|----------------------------------------|
Db|-------0-000-0-000-|----------------------------------------|
--|                   |                                        |
eb|-------------------|-------------------17-------------------|
Bb|-------------------|-18-17-15----15-17----17-15-------13/15-|
Gb|-------------------|----------17----------------15-17-------|
Db|-------------------|----------------------------------------|
Ab|-5-----0-000-0-000-|----------------------------------------|
Db|-------0-000-0-000-|----------------------------------------|


eb|-------------------|-----------------|
Bb|-------------------|-----------------|
Gb|-------------------|-----------------|
Db|-0h3p0-------------|-3-----3-5-------|
Ab|-------0-0-0-0-000-|-5-0-0-5-3p0---3-|
Db|-------0-0-0-0-000-|---0-0-0-----3---|
--|                   |                 |
eb|-------------------|-----------------|
Bb|-------------------|-----------------|
Gb|-------------------|-----------------|
Db|-3p0---------------|-----------------|
Ab|-5-----0-000-0-000-|-5p0---5-7p5----7|
Db|-------0-000-0-000-|----0-0------0-0-|


eb|-------------------|---------------------|
Bb|-------------------|---------------------|
Gb|-------------------|---------------------|
Db|-0h3p0-------------|-3p0-----3-3h5p3---3-|
Ab|-------0-000-0-000-|-----3-0---------3---|
Db|-------0-000-0-000-|-----0-0-------------|
--|                   |                     |
eb|-------------------|-------------------|-|
Bb|-------------------|-------------------|
Gb|-------------------|-------------------|
Db|-------------------|-------------------|
Ab|-8p5---0-0-0-0-000-|-8p5---8-10-0----5-|
Db|-------0-0-0-0-000-|-----0--------0----|


eb|-------------------|----------------------|
Bb|-------------------|----------------------|
Gb|-------------------|----------------------|
Db|-0h3p0-------------|-3p0------------------|
Ab|-------0-000-0-000-|----3p0-0-0-3h7p0-0-3-|
Db|-------0-000-0-000-|--------0-0-----------|
--|                   |                      |
eb|-------------------|-----------------| - -|
Bb|-------------------|-----------------|
Gb|-------------------|-----------------|
Db|-------------------|-----------------|
Ab|-8p5---0-0-0-0-000-|-8-----8-5-----8-|
Db|-------0-0-0-0-000-|---0-0-----0-0---|


eb|-------------------|---------------------|
Bb|-------------------|---------------------|
Gb|-------------------|---------------------|
Db|-0h3p0-------------|-8888-7777-3333-5555-|
Ab|-------0-000-0-000-|---------------------|
Db|-------0-000-0-000-|---------------------|
--|                   |                     |
eb|-------------------|---------------------|
Bb|-------------------|---------------------|
Gb|-------------------|---------------------|
Db|-------------------|---------------------|
Ab|-5---0-0-000-0-000-|-8888-7777-3333-5555-|
Db|-----0-0-000-0-000-|---------------------|



bridge 2:
(guitar 1:)
eb|---------------------------------|
Bb|---------------------------------|
Gb|---------------------------------|
Db|---------------------------------|
Ab|-5-5h8---5h8---5h8---5h8---5h8h5-|
Db|-0-----0-----0-----0-----0-------|
--| (guitar 1:)                     |
eb|---------------------------------|
Bb|---------------------------------|
Gb|---------------------------------|
Db|-0-------------------------------|
Ab|-0-------------------------------|
Db|-0-------------------------------|


eb|---------------------------------|
Bb|---------------------------------|
Gb|---------------------------------|
Db|---------------------------------|
Ab|-5-5h8---5h8---5h8---5h8---5h8h5-|
Db|-0-----0-----0-----0-----0-------|
--|                                 |
eb|---------------------------------|
Bb|---------------------------------|
Gb|---------------------------------|
Db|---------------------------------|
Ab|---------------------------------|
Db|---------------------------------|


eb|---------------------------------|
Bb|---------------------------------|
Gb|---------------------------------|
Db|---7h10--7h10--7h10--7h10--7h10p7|
Ab|---------------------------------|
Db|-0-----0-----0-----0-----0-------|
--|                                 |
eb|---------------------------------|
Bb|---------------------------------|
Gb|---------------------------------|
Db|---------------------------------|
Ab|---------------------------------|
Db|---------------------------------|


eb|---------------------------------|
Bb|---------------------------------|
Gb|---7h10--7h10--7h10--7h10--7h10p7|
Db|---------------------------------|
Ab|---------------------------------|
Db|-0-----0-----0-----0-----0-------|
--|                                 |
eb|---------------------------------|
Bb|---------------------------------|
Gb|---------------------------------|
Db|---7h12--7h12--7h12--7h12--7h12p7|
Ab|---------------------------------|
Db|-0-----0-----0-----0-----0-------|


eb|---------------------------------|
Bb|---------------------------------|
Gb|---------------------------------|
Db|---------------------------------|
Ab|-5-5h8---5h8---5h8---5h8---5h8h5-|
Db|-0-----0-----0-----0-----0-------|
--|                                 |
eb|---------------------------------|
Bb|---------------------------------|
Gb|---------------------------------|
Db|---------------------------------|
Ab|---------------------------------|
Db|-0-7h8-0-7h120-7h120-7h120-7h12p7|


eb|---------------------------------|
Bb|---------------------------------|
Gb|---------------------------------|
Db|---------------------------------|
Ab|-5-5h8---5h8---5h8---5h8---5h8h5-|
Db|-0-----0-----0-----0-----0-------|
--|                                 |
eb|---------------------------------|
Bb|---------------------------------|
Gb|---------------------------------|
Db|---------------------------------|
Ab|---------------------------------|
Db|-0-7h8-0-7h8-0-7h8-0-7h8-0-7h8p7-|


eb|---------------------------------|
Bb|---------------------------------|
Gb|---------------------------------|
Db|---7h10--7h10--7h10--7h10--7h10p7|
Ab|---------------------------------|
Db|-0-----0-----0-----0-----0-------|
--|                                 |
eb|---------------------------------|
Bb|---------------------------------|
Gb|---------------------------------|
Db|---------------------------------|
Ab|---------------------------------|
Db|-0-5h7-0-5h7-0-5h7-0-5h7-0-5h7p5-|


eb|---------------------------------|
Bb|---------------------------------|
Gb|---7h10--7h10--7h10--7h10--7h10p7|
Db|---------------------------------|
Ab|---------------------------------|
Db|-0-----0-----0-----0-----0-------|
--|                                 |
eb|---------------------------------|
Bb|---------------------------------|
Gb|---------------------------------|
Db|---------------------------------|
Ab|---------------------------------|
Db|-0-1p0-0-1p0-0-1p0-0-1p0-0-0h1p0-|


eb|---------------------------------|
Bb|---------------------------------|
Gb|---------------------------------|
Db|---------------------------------|
Ab|-555555555---55555---------------|
Db|-000000000---00000---------------|
--|                                 |
eb|---------------------------------|
Bb|---------------------------------|
Gb|---------------------------------|
Db|---------------------------------|
Ab|---------5-------5---------------|
Db|-000000000---00000---------------|


eb|---------------------------------|
Bb|---------------------------------|
Gb|---------------------------------|
Db|---------------------------------|
Ab|-555555555---55555-5-5-----------|
Db|-000000000---00000-0-0-13\\\-----|
--|                                 |
eb|---------------------------------|
Bb|---------------------------------|
Gb|---------------------------------|
Db|---------------------------------|
Ab|---------5-------5-5-5-----------|
Db|-000000000---00000-0-0-13\\\-----|


eb|---------------------------------|
Bb|---------------------------------|
Gb|---------------------------------|
Db|---------------------------------|
Ab|-5-5h8---5h8---5h8---5h8---5h8h5-|
Db|-0-----0-----0-----0-----0-------|
--|                                 |
eb|---------------------------------|
Bb|---------------------------------|
Gb|---------------------------------|
Db|---------------------------------|
Ab|---------5-------5---------------|
Db|-000000000---00000---------------|


eb|---------------------------------|
Bb|---------------------------------|
Gb|---------------------------------|
Db|---------------------------------|
Ab|-5-5h8---5h8---5h8---5h8---5h8h5-|
Db|-0-----0-----0-----0-----0-------|
--|                                 |
eb|---------------------------------|
Bb|---------------------------------|
Gb|---------------------------------|
Db|---------------------------------|
Ab|---------5-------5-5-5-----------|
Db|-000000000---00000-0-0-13\\\-----|


eb|---------------------------------|
Bb|---------------------------------|
Gb|---------------------------------|
Db|---7h10--7h10--7h10--7h10--7h10p7|
Ab|---------------------------------|
Db|-0-----0-----0-----0-----0-------|
--|                                 |
eb|---------------------------------|
Bb|---------------------------------|
Gb|---------------------------------|
Db|---------------------------------|
Ab|---------5-------5---------------|
Db|-000000000---00000---------------|


eb|---------------------------------|
Bb|---------------------------------|
Gb|---7h10--7h10--7h10--7h10--7h10p7|
Db|---------------------------------|
Ab|---------------------------------|
Db|-0-----0-----0-----0-----0-------|
--|                                 |
eb|---------------------------------|
Bb|---------------------------------|
Gb|---------------------------------|
Db|---------------------------------|
Ab|---------5-------5-5-5-----------|
Db|-000000000---00000-0-0-13\\\-----|


eb|---------------------------------|
Bb|---------------------------------|
Gb|---------------------------------|
Db|-1p0-1p0-----2/3\2p0-0-0-0-5\----|
Ab|-1p0-1p0-0-0-2/3\2p0-0-0-0-5\----|
Db|-1p0-1p0-0-0---------0-0-0-5\----|
--|                                 |
eb|---------------------------------|
Bb|---------------------------------|
Gb|---------------------------------|
Db|---------------------------------|
Ab|---------------------------------|
Db|---------------------------------|



guitar solo:
(guitar 7:)
eb|-----------------------------------15--17--15--14--15--14-----------|
Bb|-15^(17)---r(15)-15^(17)~------17--------------------------15--17~--|
Gb|--------------------------------------------------------------------|
Db|--------------------------------------------------------------------|
Ab|--------------------------------------------------------------------|
Db|--------------------------------------------------------------------|

eb|-------------------------------------------------------------------|
Bb|-17~---------12-12-15p12-------------12-12-15p12-------------12-12-|
Gb|------14^(16)-----------14p12-14^(16)-----------14p12-14^(16)------|
Db|-------------------------------------------------------------------|
Ab|-------------------------------------------------------------------|
Db|-------------------------------------------------------------------|

eb|------------------------------------------------------------------|
Bb|-15p12----------------15--12--10h11p10-10-------------------------|
Gb|------14p12-14^(16)------------------------12--9--12--9------12+~-|
Db|---------------------------------------------------------12-------|
Ab|------------------------------------------------------------------|
Db|------------------------------------------------------------------|

eb|---------------------------------------------|
Bb|---------------------------------------------|
Gb|-16p15p14/12-----12h14-16p15p14/12-----12p14-|
Db|------------14p12-----------------14p12------|
Ab|---------------------------------------------|
Db|---------------------------------------------|

eb|---------------------------------------------|
Bb|---------------------------------------------|
Gb|-16p15p14/12-----12h14-16p15p14/12-----12p14-|
Db|------------14p12-----------------14p12------|
Ab|---------------------------------------------|
Db|---------------------------------------------|


eb|-------------------------------------------------------------15---|
Bb|-----------20p17p15------------20p17p15------------20p17p15--15---|
Gb|-19p16p14------------19p16p14------------19p16p14-----------------|
Db|------------------------------------------------------------------|
Ab|------------------------------------------------------------------|
Db|------------------------------------------------------------------|
    ^tap      ^tap      ^tap      ^tap      ^tap      ^tap

eb|-15p12----12-----------------------------------------------------------|
Bb|-------15----15-12h15p12-10h12p10----15-12-10h12p10--------------------|
Gb|----------------------------------12----------------12h14p12-9h12p9----|
Db|--------------------------------------------------------------------12-|
Ab|-----------------------------------------------------------------------|
Db|-----------------------------------------------------------------------|

eb|--------------------------------------------------------------------|
Bb|--------------------------------------------------------------------|
Gb|-15p12--------------------------------------------------------------|
Db|-------14h17p12-12h14p12-9h12p9----14p12--12------------------------|
Ab|--------------------------------12------14--h14p12-14p12---12-------|
Db|--------------------------------------------------------h15--h15p12-|

this is played really fast, it's the run at the end:
eb|-------------------------------------------------------------------------|
Bb|----------------------------------------------------12-14-15-14-12-14-15-|
Gb|----------------------------------12-14-12----12-14----------------------|
Db|----------11-12-14-12-11-12-14-16----------16----------------------------|
Ab|-10-12-14----------------------------------------------------------------|
Db|-------------------------------------------------------------------------|

eb|-------------------|
Bb|-14-12-14-15-17~---|
Gb|-------------------|
Db|-------------------|
Ab|-------------------|
Eb|-------------------|

guitar solo rhythm:
(guitars 1 & 2:)
eb|----------------------------------|---------------------------------|
Bb|----------------------------------|---------------------------------|
Gb|----------------------------------|---------------------------------|
Db|-2-0-2-0-2-5-2-2------5-7-8-7-5-7-|-2-0-2-0-2-5-2-0-2-5-2-0-8-8-8-8-|
Ab|-2-0-2-0-2-5-2-2-000--5-7-8-7-5-7-|-2-0-2-0-2-5-2-0-2-5-2-0-8-8-8-8-|
Db|-2-0-2-0-2-5-2-2-000--5-7-8-7-5-7-|-2-0-2-0-2-5-2-0-2-5-2-0-8-8-8-8-|

eb|----------------------------------|---------------------------------|
Bb|----------------------------------|---------------------------------|
Gb|----------------------------------|---------------------------------|
Db|-2-0-2-0-2-5-2-2------5-7-8-7-5-7-|-2-0-2-0-2-5-2-------------------|
Ab|-2-0-2-0-2-5-2-2-000--5-7-8-7-5-7-|-2-0-2-0-2-5-2-------------------|
Db|-2-0-2-0-2-5-2-2-000--5-7-8-7-5-7-|-2-0-2-0-2-5-2-0-000-000-000-8\\-|

eb|----------------------------------|---------------------------------|
Bb|----------------------------------|---------------------------------|
Gb|----------------------------------|---------------------------------|
Db|-2-0-2-0-2-5-2-2------5-7-8-7-5-7-|-2-0-2-0-2-5-2-0-2-5-2-0-8-8-8-8-|
Ab|-2-0-2-0-2-5-2-2-000--5-7-8-7-5-7-|-2-0-2-0-2-5-2-0-2-5-2-0-8-8-8-8-|
Db|-2-0-2-0-2-5-2-2-000--5-7-8-7-5-7-|-2-0-2-0-2-5-2-0-2-5-2-0-8-8-8-8-|

eb|----------------------------------|---------------------------------|
Bb|----------------------------------|---------------------------------|
Gb|----------------------------------|---------------------------------|
Db|-2-0-2-0-2-5-2-2------5-7-8-7-5-7-|-2-0-2-0-2-5-2-0-2-5-2-0-8-8-8-8-|
Ab|-2-0-2-0-2-5-2-2-000--5-7-8-7-5-7-|-2-0-2-0-2-5-2-0-2-5-2-0-8-8-8-8-|
Db|-2-0-2-0-2-5-2-2-000--5-7-8-7-5-7-|-2-0-2-0-2-5-2-0-2-5-2-0-8-8-8-8-|

eb|---------------------------------|
Bb|---------------------------------|
Gb|---------------------------------|
Db|-8-8-8-7-7-7-5-5-5-8-8-8-7-7-5-5-|
Ab|-8-8-8-7-7-7-5-5-5-8-8-8-7-7-5-5-|
Db|-8-8-8-7-7-7-5-5-5-8-8-8-7-7-5-5-|



bridge 3:
(guitar 2:)
eb|-----------------------------------------------------------------|
Bb|-------------------3-------------------------------3-------------|
Gb|-----5-----------5---5---------------5-----------5---5-----------|
Db|-0-------------0-------------0---3-------------3-------------3---|
Ab|-----------------------------------------------------------------|
Db|-----------------------------------------------------------------|
--| (guitar 7:)                                                     |
eb|-----------------------------------------------------------------|
Bb|-18+~------------------------\\\-10---------------------------//-|
Gb|-----------------------------------------------------------------|
Db|-----------------------------------------------------------------|
Ab|-----------------------------------------------------------------|
Db|-----------------------------------------------------------------|
--| (guitar 1:)                                                     |
eb|-----------------------------------------------------------------|
Bb|-----------------------------------------------------------------|
Gb|-----------------------------------------------------------------|
Db|-0---------------------------------------------------------------|
Ab|-0-------------------------------8-------------------------------|
Db|-0---------------------------------------------------------------|
--| (guitar 6:)                                                     |
eb|-----------------------------------------------------------------|
Bb|-----------------------------------------------------------------|
Gb|-7-------------------------------10------------------------------|
Db|-----------------------------------------------------------------|
Ab|-----------------------------------------------------------------|
Db|-----------------------------------------------------------------|



eb|-----------------------------------------------------------------|
Bb|-------------------5---------------------------------------------|
Gb|-----7-----------7---7-----------10--101012p10-----------14p12---|
Db|-3/5-----------5-------------0---8---8-8---------10--1010--------|
Ab|-----------------------------------------------------------------|
Db|-----------------------------------------------------------------|
--|                                                                 |
eb|-----------------------------------------------------------------|
Bb|-12--------------------------------------------------------------|
Gb|---------------------------------10--------------12--------------|
Db|-----------------------------------------------------------------|
Ab|-----------------------------------------------------------------|
Db|-----------------------------------------------------------------|
--|                                                                 |
eb|-----------------------------------------------------------------|
Bb|-----------------------------------------------------------------|
Gb|-----------------------------------------------------------------|
Db|-----------------------------------------------------------------|
Ab|-10------------------------------5---------------7---------------|
Db|-----------------------------------------------------------------|
--|                                                                 |
eb|-----------------------------------------------------------------|
Bb|-----------------------------------------------------------------|
Gb|-12------------------------------7---------------9---------------|
Db|-----------------------------------------------------------------|
Ab|-----------------------------------------------------------------|
Db|-----------------------------------------------------------------|



(guitar 2:)
eb|-----------------------------------------------------------------|
Bb|-------------------3-------------------------------3-------------|
Gb|-----5-----------5---5---------------5-----------5---5-----------|
Db|-0-------------0-------------0---3-------------3-------------3---|
Ab|-----------------------------------------------------------------|
Db|-----------------------------------------------------------------|
--| (guitar 1 [guitar 6 & 7 fade out]:)                             |
eb|-----------------------------------------------------------------|
Bb|-----------------------------------------------------------------|
Gb|---------------------------------5-------------------------------|
Db|-7---0---0---0---0---0---0---0---3---3---3---3---3---3---3---3---|
Ab|-5---0---0---0---0---0---0---0-------3---3---3---3---3---3---3---|
Db|-----0---0---0---0---0---0---0-------3---3---3---3---3---3---3---|


eb|-----------------------------------------------------------------|
Bb|-------------------5---------------------------------------------|
Gb|-----7-----------7---7-----------10--101012p10-----------14p12---|
Db|-3/5-----------5-------------0---8---8-8---------10--1010--------|
Ab|-----------------------------------------------------------------|
Db|-----------------------------------------------------------------|
--|                                                                 |
eb|-----------------------------------------------------------------|
Bb|-----------------------------------------------------------------|
Gb|-7-----------------------------10--------------12----------------|
Db|-5---5---5---5---5---5---5---5-8-8---8---8---8-1010--10--10--10--|
Ab|-----5---5---5---5---5---5---5---8---8---8---8---10--10--10--10--|
Db|-----5---5---5---5---5---5---5---8---8---8---8---10--10--10--10--|


eb|--------------------------------|
Bb|--------------------------------|
Gb|--------------------------------|
Db|-0------------------------------|
Ab|-0-\\\\\\\\\\\\\\\\\\\\\\\\\\\\-|
Eb|-0-\\\\\\\\\\\\\\\\\\\\\\\\\\\\-|
--|                                |
eb|--------------------------------|
Bb|--------------------------------|
Gb|--------------------------------|
Db|-0------------------------------|
Ab|-0-\\\\\\\\\\\\\\\\\\\\\\\\\\\\-|
Eb|-0-\\\\\\\\\\\\\\\\\\\\\\\\\\\\-|


eb|-------------------------------------------------------------------|
Bb|-------------------------------------------------------------------|
Gb|----------------7p5-5----------------------------------------------|
Db|-------------------7-75h7p53h53-05-------5-------8-------8---------|
Ab|-------------0-0-----------------5---55555---55558---88888---88888-|
Db|-0---00000---0-0-----------------5---55555---55558---88888---88888-|
--|                                                                   |
eb|-------------------------------------------------------------------|
Bb|------------------------------------------------8p6-6p3------------|
Gb|---------------------------------------------------7---h5-7p5-5----|
Db|---------------------------------5-----------5-5-------------7-h75\|
Ab|---------------------------------5---55555---5-5-------------------|
Db|-0---00000---00000---00000---00005---55555---5-5-------------------|


eb|-----------------------------------------------------------------|
Bb|-----------------------------------------------------------------|
Gb|----------------7p5-5--------------------------------------------|
Db|-------------------7-75h7p53h53-05-------5-------8---7---5---3---|
Ab|-------------0-0-----------------5---55555---55558---7---5---3---|
Db|-0---00000---0-0-----------------5---55555---55558---7---5---3---|
--|                                                              |--|
eb|--------------------------------------------------------------|
Bb|--------------------------------------------------------------|
Gb|--------------------------------------------------------------|
Db|------------------------------5-------5-------8---7---5---3---|
Ab|------------------------------5---55555---55558---7---5---3---|
Db|-0---00000---00000---00000-0005---55555---55558---7---5---3---|





Outro:
(guitar 1:)
eb|---------------------------------|
Bb|---------------------------------|
Gb|---------------------------------|
Db|-1p0-1p0-----2/3\2p0-0-0-0-5\----|
Ab|-1p0-1p0-0-0-2/3\2p0-0-0-0-5\----|
Db|-1p0-1p0-0-0---------0-0-0-5\----|
--| (guitar 2:)                     |
eb|---------------------------------|
Bb|---------------------------------|
Gb|---------------------------------|
Db|-1p0-1p0-----2/3\2p0-0-0-0-5\----|
Ab|-1p0-1p0-0-0-2/3\2p0-0-0-0-5\----|
Db|-1p0-1p0-0-0---------0-0-0-5\----|


eb|---------------------------------|
Bb|---------------------------------|
Gb|---------------------3-----------|
Db|-1p0-1p0-----2/3\2p0-3---3---3---|
Ab|-1p0-1p0-0-0-2/3\2p0-1p0-1/2\1\0-|
Db|-1p0-1p0-0-0---------------------|
--|                                 |
eb|---------------------------------|
Bb|---------------------------------|
Gb|---------------------3-----------|
Db|-1p0-1p0-----2/3\2p0-3---3---3---|
Ab|-1p0-1p0-0-0-2/3\2p0-1p0-1/2\1\0-|
Db|-1p0-1p0-0-0---------------------|

eb|---------------------------------|
Bb|---------------------------------|
Gb|---------------------------------|
Db|-1p0-1p0-----2/3\2p0-0-0-0-5\----|
Ab|-1p0-1p0-0-0-2/3\2p0-0-0-0-5\----|
Db|-1p0-1p0-0-0---------0-0-0-5\----|
--|                                 |
eb|---------------------------------|
Bb|---------------------------------|
Gb|---------------------------------|
Db|-1p0-1p0-----2/3\2p0-0-0-0-5\----|
Ab|-1p0-1p0-0-0-2/3\2p0-0-0-0-5\----|
Db|-1p0-1p0-0-0---------0-0-0-5\----|


eb|---------------------------------|
Bb|---------------------------------|
Gb|---------------------3-----------|
Db|-1p0-1p0-----2/3\2p0-3---3-------|
Ab|-1p0-1p0-0-0-2/3\2p0-1p0-1-------|
Db|-1p0-1p0-0-0---------------------|
--|                                 |
eb|---------------------------------|
Bb|---------------------------------|
Gb|---------------------3---3-------|
Db|-1p0-1p0-----2/3\2p0-3---3-------|
Ab|-1p0-1p0-0-0-2/3\2p0-1p0-1-------|
Db|-1p0-1p0-0-0---------------------|




ORDER:
intro
main riff
verse 1
pre-chorus
chorus 
bridge 1
verse 2
pre-chorus
chorus x2
bridge 2
guitar solo/guitar solo rhythm
bridge 3
chorus
outro



************************************

| /   slide up
| \   slide down
| h   hammer-on
| p   pull-off
| ~   vibrato
| +   harmonic
| x   Mute note
| b   Bend
| pb  Pre-bend
| br  Bend release
| pbr Pre-bend release
| brb Bend release bend

************************************
Tap to rate this tab
# A B C D E F G H I J K L M N O P Q R S T U V W X Y Z