Song name
# A B C D E F G H I J K L M N O P Q R S T U V W X Y Z

Black Veil Brides - New Religion tab

-------------------------------------------------------------------------------
                             New Religion - Black Veil Brides
-------------------------------------------------------------------------------
Tabbed by: I.shower.naked
Email: lemon_lime_blast@yahoo.com

Tuning: Drop C#

e|---------------------------------------------------------------------------|
B|---------------------------------------------------------------------------|
G|---------------------------------------------------------------------------|
D|-------------------------8-7-----------------------------------------------|
A|---------5---3---5-----------10-9---------5---3----------------------------|
E|-0-0-0-0---0---0---0-0-0----------0-0-0-0---0---0-5-3-6-5-3-0-3------------|

e|---------------------------------------------------------------------------|
B|---------------------------------------------------------------------------|
G|--------------------------------------------6-8-7--------------------------|
D|-------------------------8-7------------7-8-------8-10---------------------|
A|---------5---3---5-----------10-9----10------------------------------------|
E|-0-0-0-0---0---0---0-0-0---------------------------------------------------|

e|-11p10p8-------------------------------------------------------------------|
B|---------11p10p8-----------------------------------------------------------|
G|------------------10p9p7---------------------------------------------------|
D|--------------------------10p9p7-------------------------------------------|
A|---------------------------------------------------------------------------|
E|---------------------------------------------------------------------------|

*****************************************************************************
Tap to rate this tab
 
# A B C D E F G H I J K L M N O P Q R S T U V W X Y Z