Song name
# A B C D E F G H I J K L M N O P Q R S T U V W X Y Z

Black Veil Brides - Saviour tab

This is my first tab so don't expect much from me. Anyway I did my best... Hope you'll have fun!



Guitar 1(acoustic):


E|------------------------|
B|----------0-------------|
G|---0---0---0----0-------|
D|-----4--------4---------|  
A|-7----------------------|
E|------------------------|



E|------------------------|
B|----------0-------------|
G|---0---0---0----0-------|
D|-----4--------4---------|  
A|-7----------------------|
E|------------------------|



E|------------------------|
B|------------------------|
G|-----0-----0------------|
D|--------4---------------|
A|--5---------------------|
E|------------------------|



E|------------------------|
B|----------0-------------|
G|---0---0---0----0-------|
D|-----4--------4---------|  
A|-3----------------------|
E|------------------------|



E|------------------------|
B|------------------------|
G|----0---0---0----0------|
D|------4--------4--------|
A|--3-------5-------------|
E|------------------------|

-repeat this for all the intro-





Guitar 2(elecrtic):


E|------------------------------------------------------------------------|
B|----8--------8---------8---10--12-----13-12---13p12-----10---12p10------|
G|--------11-------11-----------------------------------------------------|
D|------------------------------------------------------------------------|
A|------------------------------------------------------------------------|
E|------------------------------------------------------------------------|



E|------------------------------------------------------------------------|
B|--------8\7-------5--5-----5--------------------------------------------|
G|------------------------4------5-----4-5--5p4---------------------------|
D|-----------------------------------------------------5---7p5------------|
A|------------------------------------------------------------------------|
E|------------------------------------------------------------------------|



E|------------------------------------------------------------------------|
B|----8--------8---------8---10--12-----15-13-12--------13p12-----10------|
G|--------11-------11-----------------------------------------------------|
D|------------------------------------------------------------------------|
A|------------------------------------------------------------------------|
E|------------------------------------------------------------------------|



E|------------------------------------------------------------------------|
B|--12p10-----8------8-------12-10-12-------13-12-13---------15-13-15-----|
G|---------------11-------------------------------------------------------|
D|------------------------------------------------------------------------|
A|------------------------------------------------------------------------|
E|------------------------------------------------------------------------|



E|------------------------------------------------------------------------|
B|-----15-13-12------10---8-------10p8------11----------------------------|
G|------------------------------------------------------------------------|
D|------------------------------------------------------------------------|
A|------------------------------------------------------------------------|
E|------------------------------------------------------------------------|


\ -  slide down
p -  pull off

And that was the intro from Saviour by Black Veil Brieds! Hope you like it!
Tap to rate this tab
# A B C D E F G H I J K L M N O P Q R S T U V W X Y Z