Song name
# A B C D E F G H I J K L M N O P Q R S T U V W X Y Z

Black Veil Brides - Lost It All tab

e|----------------|----------------|----------------|----------------|
B|2---------------|2---------------|2---------------|2---------------|
G|3-------3-------|3-------3-------|3-------3-------|3-------3-------|
D|----3-------3---|----3-------3---|----3-------3---|----3-------3---|
A|1---------------|----------------|----------------|----------------|
E|----------------|----------------|4---------------|----------------|
Played on piano but Tabbed for guitar

e|----------------|----------------|----------------|----------------|
B|4---------------|1---------------|--------1-------|--------1-------|
G|--------3-------|3-------3-------|3---------------|2---------------|
D|----3-------3---|----3-------3---|3---3-------3---|3---3-------3---|
A|----------------|----------------|----------------|----------------|
E|----------------|2---------------|----------------|1---------------|

e|----------------|--------------1-|1---------------|1-------1--2--4-|
B|1-------2-------|2-------2--4----|2---------------|2---------------|
G|3-------3-------|3-------3-------|3-------3-------|3-------3--1----|
D|----3-------3---|----3---------3-|----3-------3---|----3---------3-|
A|1---------------|----------------|----------------|----------------|
E|----------------|----------------|4---------------|----------------|

e|6-------6-------|6---------------|9-------8-------|6-------5-------|
B|4---------------|----------------|----------------|----------------|
G|--------3-------|3---------------|----------------|----------------|
D|----------------|----------------|----------------|3-------3-------|
A|----------------|----------------|----------------|----------------|
E|2---------------|----------------|11--------------|1---------------|
Tap to rate this tab
 
# A B C D E F G H I J K L M N O P Q R S T U V W X Y Z