Guitaretab - guitar tabs
Song name
# A B C D E F G H I J K L M N O P Q R S T U V W X Y Z

Black Veil Brides - Lost It All tab

-------------------------------------------------------------------------------
                             LOST IT ALL - Black Veil Brides
-------------------------------------------------------------------------------
Tabbed by: jonads_ (PSN name)
E-mail: Call_Of_Duty_WW3@hotmail.com

Tuning: Drop C#/Db (C#/Db, G#/Ab, C#/D#, F#/Gb, A#/Bb, D#/Eb)   

Bridge (3:35-4:31)
e|---------------------------------------------------------------------------|
B|---------------------------------------------------------------------------|
G|----7--7--------------------------------4--4-------------------------------|X8
D|----7--7--------7---7--7---7----x--x----4--4--------5---5--5---5----x--x---|
A|----5--5---0----7---7--7---7----x--x----2--2---0----5---5--5---5----x--x---|
E|-----------0----7---7--7---7-------------------0----5---5--5---5-----------|
  PM         .                                   .
  
Solo (4:32-end)
e|--17--17p15-15-15p14-14-14\12--14p12----12---------------------------------|
B|-------------------------------------15----15--15p14-14-14p12-12--12\10----|
G|---------------------------------------------------------------------------|
D|---------------------------------------------------------------------------|
A|---------------------------------------------------------------------------|
E|---------------------------------------------------------------------------|

e|---------------------------------------------------------------------------|
B|--12p10----10--------------------------------------------------------------|
G|--------11----11---11p9----11b(13)r11--11~~~----9-11-12-9-11-12-9-11-12----|
D|------------------------11-------------------------------------------------|
A|---------------------------------------------------------------------------|
E|---------------------------------------------------------------------------|

e|---------------------------------------------------------------------------|
B|----------10-12-14-10-12-14-10-12-14-10-12-14------------------------------|
G|--9-11-12-------------------------------------11-12-14-11-12-14-11-12-14---|
D|---------------------------------------------------------------------------|
A|---------------------------------------------------------------------------|
E|---------------------------------------------------------------------------|
[ Tab from: http://www.guitaretab.com/b/black-veil-brides/342243.html ]
e|---------------------------------------------------------------------------|
B|-----------12-14-15-12-14-15-12-14-15-12-14-15-14-15-17-14-15-17-14-15-17--|
G|--11-12-14-----------------------------------------------------------------|
D|---------------------------------------------------------------------------|
A|---------------------------------------------------------------------------|
E|---------------------------------------------------------------------------|

e|---------/17-----------17----------17-------17----------17b(19)r17--17-----|
B|--/15----------15----------15---------15-------15--------------------------|
G|--------------------14---------14--------14-------14-----------------------|
D|---------------------------------------------------------------------------|
A|---------------------------------------------------------------------------|
E|---------------------------------------------------------------------------|

e|--14-15-17-14-15-17--------------------------------------------------------|
B|--------------------14-15-17-14-15-17--------------------------------------|
G|--------------------------------------14-16-18-14-16-18--------------------|
D|--------------------------------------------------------14-16-17-14-16-17--|
A|---------------------------------------------------------------------------|
E|---------------------------------------------------------------------------|

e|---------------------------------------------------------------------------|
B|-----------------------------------------------------------------------15--|
G|--------------------------14--------------14---------------14h16p14h16-----|
D|--17-16-14--/16---14--16------17--16--17------17--16--17~~~----------------|
A|---------------------------------------------------------------------------|
E|---------------------------------------------------------------------------|

e|---------------------------------------------------------------------------|
B|---------15---------15-----17b(19)r17---15h17--15~~~~~~~~~~(Let Ring)~~~~~~|
G|--14h16------14h16---------------------------------------------------------|
D|---------------------------------------------------------------------------|
A|---------------------------------------------------------------------------|
E|---------------------------------------------------------------------------|


************************************
    Key:
| /      slide up
| \      slide down
| h      hammer-on
| p      pull-off
| ~      vibrato
| x      Mute note
| b(?)   Bend to ? note
| b(?)r  Bend to ? note then release 
| Pm     Palm mute
************************************
Related for Lost It All tab
Lost It All chords by Black Veil Brides