Song name
# A B C D E F G H I J K L M N O P Q R S T U V W X Y Z

Black Veil Brides - Rebel Love Song tab

-------------------------------------------------------------------------------
                             Black veil brides- Rebel love song
                            OUTRO SWEEPS AND RIFFS 100% ACCURATE
-------------------------------------------------------------------------------
Tabbed by: Kieran satchell
E-mail:Kazkieran@hotmail.co.uk
This guitar tab was made watching Jake Pitt's video of Rebel love song
tutorial. He makes it a real bitch to understand! hahahah!
This is pretty much dead on 100% but i'll say its 99.9% just
to be sure! Enjoy guys, email me if you have any problems
BE POLITE! I wont reply to unfriendly emails...or even read them

Tuning: Drop C#(C#G#C#F#A#D#)
e|--10---10---10----9---9----9----7---7---7----|
B|--13b--13b--13b~-12b-12b-12b~--10b-10b-10b~--|
G|---------------------------------------------|
D|---------------------------------------------|
A|---------------------------------------------|
E|---------------------------------------------|
>HERE YOU NEED TO SWITCH YOUR GUITAR TOGGLE TO THE MUFFLY SOUND (Rythem),  IT IS BEST FOR SWEEPING!
e|----14p-10---------------------------10--14p--10--|
B|-----------12--------------------12---------------|
G|---------------11------------11-------------------|
D|------------------12-----12-----------------------|
A|----------------------14--------------------------|
E|--------------------------------------------------|
Ok now this is sweep number 2. as you can see you have to play 16 and the 16 above, this 
is very dfficult and you maybe thinking
"this is impossible" but i shit you not, it is possible, Jake Pitts suggested in his video "rolling
your finger" over the fret as you play the notes. after the sweep, i
think i hear a quick slide down the fret board before the final
ending riff*
e|----19p---14------------------------14-19p--14-QUICK SLIDE*17-15-14---------|
B|-------------15------------------15--------------------------------17--15~--|
G|----------------16------------16--------------------------------------------|
D|--------------------16-----16-----------------------------------------------|
A|-----------------------17---------------------------------------------------|
E|----------------------------------------------------------------------------|

Rythem: Jinxx 100% accurate. just learn the speed and rythem
The muted notes are either the two top (C#+G#)or just the top
string muted on the 2nd fret, these are strummed in a particular
rythem, you may need to listen to the song to understand it.
e|----------------------------------------------------------------------|
B|----------------------------------------------------------------------|
G|----------------------------------------------------------------------|
D|----------------------------------------------------------------------|
A|--2-2-2--------------------0-0-5-5---2-2-2---------------x-x-x-x-x-x--|
E|--------5-5-5-2-2-2-0-0-0-------------------5-5-5--2-2-2-x-x-x-x-x-x--|

e|-----------------------------------------------------------------|
B|-----------------------------------------------------------------|
G|-----------------------------------------------------------------|
D|-----------------------------------------------------------------|
A|-2-2-2-------------------0-0-5-5-2-2-2---------------------------|
E|-------5-5-5-2-2-2-0-0-0----------------5-5-5-2-2-2-2-2-2-2-2-2--|

e|-----------------------------------------------------------------------------------|
B|-----------------------------------------------------------------------------------|
G|-----------------------------------------------------------------------------------|
D|---7----5---4--2--0~---------------------------------------------------------------|
A|---7----5---4--2--0~---------------------------------------------------------------|
E|---7----5---4--2--0~---------------------------------------------------------------|

| /   slide up
| \   slide down
| h   hammer-on
| p   pull-off
| ~   vibrato
| +   harmonic
| x   Mute note
| b   Bend
| pb  Pre-bend
| br  Bend release
| pbr Pre-bend release
| brb Bend release bend

************************************
Tap to rate this tab
# A B C D E F G H I J K L M N O P Q R S T U V W X Y Z