Song name
# A B C D E F G H I J K L M N O P Q R S T U V W X Y Z

Black Veil Brides - New Religion tab

-------------------------------------------------------------------------
                       New Religion - Black Veil Brides
-------------------------------------------------------------------------


Tuning: Drop C# (C# G# C# F# A# D#)


Intro

|-----------------------------------------------------------------------|
|-----------------------------------------------------------------------|
|-----------------------------------------------------------------------|
|---------------------------------------------------8---7---5-----------|
|-------------------5-------3-------5---------------------------9-------|
|---0---0---0---0-------0-------0-------0---0---0-----------------------|


|-----------------------------------------------------------------------|
|-----------------------------------------------------------------------|
|-----------------------------------------------------------------------|
|-----------------------------------------------------------------------|
|-------------------5-------3-------------------------------------------|
|---0---0---0---0-------0-------0---0---3---5---6---5---3---0---3-------|


|-----------------------------------------------------------------------|
|-----------------------------------------------------------------------|
|-----------------------------------------------------------------------|
|---------------------------------------------------8---7---5-----------|
|-------------------5-------3-------5---------------------------9-------|
|---0---0---0---0-------0-------0-------0---0---0-----------------------|


|-----------------------------------11-10-8-----------------------------|
|-------------------------------------------11-10-8---------------------|
|---------------6---7---6-------6-------------------11-8-7--------------|
|---5---7---8---------------8------------------------------11-8-7-------|
|-----------------------------------------------------------------------|
|-----------------------------------------------------------------------|



Verse

|-----------------------------------------------------------------------|
|-----------------------------------------------------------------------|
|-----------------------------------------------------------------------|
|---------------------------------------------------8---7---5-----------|
|-------------------5-------3-------5---------------------------9-------|
|---0---0---0---0-------0-------0-------0---0---0-----------------------|


|-----------------------------------------------------------------------|
|-----------------------------------------------------------------------|
|-----------------------------------------------------------------------|
|-----------------------------------------------------------------------|
|-------------------5-------3-------------------------------------------|
|---0---0---0---0-------0-------0---0---3---5---6---5---3---0---3-------|


|-----------------------------------------------------------------------|
|-----------------------------------------------------------------------|
|-----------------------------------------------------------------------|
|---------------------------------------------------8---7---5-----------|
|-------------------5-------3-------5---------------------------9-------|
|---0---0---0---0-------0-------0-------0---0---0-----------------------|


|-----------------------------------11-10-8-----------------------------|
|-------------------------------------------11-10-8---------------------|
|---------------6---7---6-------6-------------------11-8-7--------------|
|---5---7---8---------------8------------------------------11-8-7-------|
|-----------------------------------------------------------------------|
|-----------------------------------------------------------------------|


|-----------------------------------------------------------------------|
|-----------------------------------------------------------------------|
|-----------------------------------------------------------------------|
|---------------------------------------------------12---10---8---------|
|-------------------8-------7-------8-----------------------------12----|
|---0---0---0---0-------0-------0-------0---0---0-----------------------|


|-----------------------------------------------------------------------|
|-----------------------------------------------------------------------|
|-----------------------------------------------------------------------|
|-----------------------------------------------------------------------|
|-------------------8-------7-------------------------------------------|
|---0---0---0---0-------0-------0---0---3---5---6---5---3---0---3-------|


|-----------------------------------------------------------------------|
|-----------------------------------------------------------------------|
|-----------------------------------------------------------------------|
|---------------------------------------------------12---10---8---------|
|-------------------8-------7-------8-----------------------------12----|
|---0---0---0---0-------0-------0-------0---0---0-----------------------|


|-----------------------------------15-13-11------------------------------|
|--------------------------------------------15-13-11---------------------|
|----------------9---10---9-------9--------------------14-12-11-----------|
|---8---10--12----------------12--------------------------------13-12-10--|
|-------------------------------------------------------------------------|
|-------------------------------------------------------------------------|


Pre-chorus

|-----------------------------------------------------------------------|
|-----------------------------------------------------------------------|
|-----------------------------------------------------------------------|
|-----------------------------------------------------------------------|
|---0---------------------------------3---------------------------------|
|---0---0---0--0--0--0---0---0----0-------6---5---3---0---3---5---3~----|


|-----------------------------------------------------------------------|
|-----------------------------------------------------------------------|
|-----------------------------------------------------------------------|
|-----------------------------------------------------------------------|
|-----------------------------------------------------------------------|
|-------3---5---3---6---5---3---7~---6---5---3---0---3---5---0~---------|


|-----------------------------------------------------------------------|
|-----------------------------------------------------------------------|
|-----------------------------------------------------------------------|
|------------------------------------7~----------5~---------------------|
|-----------------------------------------------------------------------|
|-------0---0---0---0---0~----0-------------------------------3~--------|


|-----------------------------------------------------------------------|
|-----------------------------------------------------------------------|
|-----------------------------------------------------------------------|
|-------------------------------6~------5-------------------------------|
|-------------------------------------------5--------------------0~-----|
|-------3---5---3---6---5---3-------------------3---6---3---5----0~-----|


|-----------------------------------------------------------------------|
|-----------------------------------------------------------------------|
|-----------------------------------------------------------------------|
|-----------------------------------------------------------------------|
|-------------------------------3---------------------------------------|
|---0---0---0---0---0---0---0-------6---5---3---0---3---5---3~----------|


|-----------------------------------------------------------------------|
|-----------------------------------------------------------------------|
|-----------------------------------------------------------------------|
|-----------------------------------------------------------------------|
|-----------------------------------------------------------------------|
|---3----5---5---3---6---5---3---7~---6---5---3---0---3---5---0~--------|


|-----------------------------------------------------------------------|
|-----------------------------------------------------------------------|
|-----------------------------------------------------------------------|
|-----------------------------------------------------------------------|
|-------------------------------3---------------------------------------|
|---0---0---0---0---0---0---0-------6---5---3---0---3---5---3~----------|


|-----------------------------------------------------------------------|
|-----------------------------------------------------------------------|
|-----------------------------------------------------------------------|
|---------------------------6~------5-----------------------------------|
|---------------------------------------5-------------------------------|
|---3---5---3---6---5---3-------------------3---6---3---5---------------|


|-----------------------------------------------------------------------|
|-----------------------------------------------------------------------|
|-----------------------------------------------------------------------|
|-----------7-------8-----------5-------7-------------------------------|
|---0---0-------0-------0---0-------0-------0---0-----8~7~5-------------|
|------------------------------------------------------------8~7~5------|



Chorus

 LEAD GUITAR

|-----------17----------17----------17----------------------------------|
|----18----------18----------18--------------18^---22----23----20-------|
|-----------------------------------------------------------------------|
|-----------------------------------------------------------------------|
|-----------------------------------------------------------------------|
|-----------------------------------------------------------------------|


|-----------13----------13----------13----------------------------------|
|----15----------15----------15--------------15^---18----20----17-------|
|-----------------------------------------------------------------------|
|-----------------------------------------------------------------------|
|-----------------------------------------------------------------------|
|-----------------------------------------------------------------------|


|-----------13----------13----------13----------------------------------|
|----15----------15----------15--------------15^---18----20----17-------|
|-----------------------------------------------------------------------|
|-----------------------------------------------------------------------|
|-----------------------------------------------------------------------|
|-----------------------------------------------------------------------|


|-----------13----------13----------12-------13----12-------------------|
|----15----------15----------13--------------------------15----13-------|
|-----------------------------------------------------------------------|
|-----------------------------------------------------------------------|
|-----------------------------------------------------------------------|
|-----------------------------------------------------------------------|


|-----------17----------17----------17----------------------------------|
|----18----------18----------18--------------18^---22----23----20-------|
|-----------------------------------------------------------------------|
|-----------------------------------------------------------------------|
|-----------------------------------------------------------------------|
|-----------------------------------------------------------------------|


|-----------13----------13----------13----------------------------------|
|----15----------15----------15--------------15^---18----20----17-------|
|-----------------------------------------------------------------------|
|-----------------------------------------------------------------------|
|-----------------------------------------------------------------------|
|-----------------------------------------------------------------------|


|-----------13----------13----------13----------------------------------|
|----15----------15----------15--------------15^---18----20----17-------|
|-----------------------------------------------------------------------|
|-----------------------------------------------------------------------|
|-----------------------------------------------------------------------|
|-----------------------------------------------------------------------|


|-----------13----------13----------12-------13----12-------------------|
|----15----------15----------13--------------------------15----13-------|
|-----------------------------------------------------------------------|
|-----------------------------------------------------------------------|
|-----------------------------------------------------------------------|
|-----------------------------------------------------------------------|


 RHYTHM GUITAR

|---------------------------------|-------------------------------------|
|---------------------------------|-------------------------------------|
|---------------------------------|-------------------------------------|
|---0---0---0---0---0---0---0---0-|-0---0---0---0---10---10---10---10---|
|---0---0---0---0---0---0---0---0-|-0---0---0---0----7----7----7----7---|
|---0---0---0---0---0---0---0---0-|-0---0---0---0----0----0----0----0---|


|---------------------------------|-------------------------------------|
|---------------------------------|-------------------------------------|
|---------------------------------|-------------------------------------|
|---8---8---8---8---8---8---8---8-|-8---8-------------------------------|
|---8---8---8---8---8---8---8---8-|-8---8-------------------------------|
|---8---8---8---8---8---8---8---8-|-8---8---7---8---10----8----7----8---|


|---------------------------------|-------------------------------------|
|---------------------------------|-------------------------------------|
|---------------------------------|-------------------------------------|
|---5---5---5---5---5---5---5---5-|-7---7---7---7----7----7----7----7---|
|---5---5---5---5---5---5---5---5-|-5---5---5---5----5----5----5----5---|
|---5---5---5---5---5---5---5---5-|-5---5---5---5----5----5----5----5---|


|---------------------------------|-------------------------------------|
|---------------------------------|-------------------------------------|
|---------------------------------|-------------------------------------|
|---3---3---3---3---3---3---3---3-|-------------------------------------|
|---3---3---3---3---3---3---3---3-|-------------------------------------|
|---3---3---3---3---3---3---3---3-|-7---5---0---3---5----3----2----3----|


|---------------------------------|-------------------------------------|
|---------------------------------|-------------------------------------|
|---------------------------------|-------------------------------------|
|---0---0---0---0---0---0---0---0-|-0---0---0---0---10---10---10---10---|
|---0---0---0---0---0---0---0---0-|-0---0---0---0----7----7----7----7---|
|---0---0---0---0---0---0---0---0-|-0---0---0---0----0----0----0----0---|


|---------------------------------|-------------------------------------|
|---------------------------------|-------------------------------------|
|---------------------------------|-------------------------------------|
|-----------------------8--8--8-8-|-8---8---7---8---10----8----7----8---|
|---8--8--8--8----------8--8--8-8-|-8---8-------------------------------|
|---8--8--8--8--8---8---8--8--8-8-|-8---8-------------------------------|


|---------------------------------|-------------------------------------|
|---------------------------------|-------------------------------------|
|---------------------------------|-------------------------------------|
|---5---5---5---5---5---5---5---5-|-5---5---5---7----8----7----5----7---|
|---5---5---5---5---5---5---5---5-|-5---5-------------------------------|
|---5---5---5---5---5---5---5---5-|-5---5-------------------------------|


|---------------------------------|-------------------------------------|
|---------------------------------|-------------------------------------|
|---------------------------------|-------------------------------------|
|---3---3---3---3---3---3---3---3-|-------------------------------------|
|---3---3---3---3---3---3---3---3-|-------------------------------------|
|---3---3---3---3---3---3---3---3-|-7---5---0---3---5----3----2----3----|





Verse

|-----------------------------------------------------------------------|
|-----------------------------------------------------------------------|
|-----------------------------------------------------------------------|
|---------------------------------------------------8---7---5-----------|
|-------------------5-------3-------5---------------------------9-------|
|---0---0---0---0-------0-------0-------0---0---0-----------------------|


|-----------------------------------------------------------------------|
|-----------------------------------------------------------------------|
|-----------------------------------------------------------------------|
|-----------------------------------------------------------------------|
|-------------------5-------3-------------------------------------------|
|---0---0---0---0-------0-------0---0---3---5---6---5---3---0---3-------|


|-----------------------------------------------------------------------|
|-----------------------------------------------------------------------|
|-----------------------------------------------------------------------|
|---------------------------------------------------8---7---5-----------|
|-------------------5-------3-------5---------------------------9-------|
|---0---0---0---0-------0-------0-------0---0---0-----------------------|


|-----------------------------------11-10-8-----------------------------|
|-------------------------------------------11-10-8---------------------|
|---------------6---7---6-------6-------------------11-8-7--------------|
|---5---7---8---------------8------------------------------11-8-7-------|
|-----------------------------------------------------------------------|
|-----------------------------------------------------------------------|


|-----------------------------------------------------------------------|
|-----------------------------------------------------------------------|
|-----------------------------------------------------------------------|
|---------------------------------------------------12---10---8---------|
|-------------------8-------7-------8-----------------------------12----|
|---0---0---0---0-------0-------0-------0---0---0-----------------------|


|-----------------------------------------------------------------------|
|-----------------------------------------------------------------------|
|-----------------------------------------------------------------------|
|-----------------------------------------------------------------------|
|-------------------8-------7-------------------------------------------|
|---0---0---0---0-------0-------0---0---3---5---6---5---3---0---3-------|


|-----------------------------------------------------------------------|
|-----------------------------------------------------------------------|
|-----------------------------------------------------------------------|
|---------------------------------------------------12---10---8---------|
|-------------------8-------7-------8-----------------------------12----|
|---0---0---0---0-------0-------0-------0---0---0-----------------------|


|-----------------------------------15-13-11------------------------------|
|--------------------------------------------15-13-11---------------------|
|----------------9---10---9-------9--------------------14-12-11-----------|
|---8---10--12----------------12--------------------------------13-12-10--|
|-------------------------------------------------------------------------|
|-------------------------------------------------------------------------|


Pre-chorus

|---10^-------------10^-----------10^-----------------------------------|
|---13^-------------13^-----------13^-----------------------------------|
|-----------------------------------------------------------------------|
|-----------------------------------------------------------------------|
|-----------------------------------------------------------------------|
|-----------------------------------------------------------------------|


|-----------------------------------------------------------------------|
|-----------------------------------------------------------------------|
|-----------------------------------------------------------------------|
|-----------------------------------------------------------------------|
|-----------------------------------------------------------------------|
|-----------5---3---0---3---5---0~----0----0--0---0--0----x---0---------|


|-----------------------------------------------------------------------|
|-----------------------------------------------------------------------|
|-----------------------------------------------------------------------|
|----7------5~-----------------------------------------------6~---------|
|-----------------------------------------------------------------------|
|-----------------------3~------------3---5--3---6--5---3---------------|


|-------------------------------------------|
|-------------------------------------------|
|-------------------------------------------|
|-----5-------------------------------------|
|----------5--------------------------------|
|----------------3----6----3----5-----------|


|-----------------------------------------------------------------------|
|-----------------------------------------------------------------------|
|-----------------------------------------------------------------------|
|-----------------------------------------------------------------------|
|---0---------------------------------3---------------------------------|
|---0---0---0--0--0--0---0---0----0-------6---5---3---0---3---5---3~----|


|-----------------------------------------------------------------------|
|-----------------------------------------------------------------------|
|-----------------------------------------------------------------------|
|-----------------------------------------------------------------------|
|-----------------------------------------------------------------------|
|-------3---5---3---6---5---3---7~---6---5---3---0---3---5---0~---------|


|-----------------------------------|
|-----------------------------------|
|-----------------------------------|
|-----------------------------------|
|-----------------------------------|
|-------0---0---0---0---0~----0-----|

|-----------------------------------------------------------------------|
|-----------------------------------------------------------------------|
|-----------------------------------------------------------------------|
|----------------------------------------------------------------6~-----|
|---3-------------------------------------------------------------------|
|-------6---5---3---0---3---5----3~---3---5---3---6----5---3------------|


|--------------------------------|
|--------------------------------|
|--------------------------------|
|---5----------------------------|
|-------5------------------------|
|-----------3----6---3----5------|


|--17-13----------13-18-13-----------13-15-12----------12-17-12---------|
|--------15----15----------15-----15----------13----13----------14------|
|-----------14----------------15-----------------12----------------14---|
|-----------------------------------------------------------------------|
|-----------------------------------------------------------------------|
|-----------------------------------------------------------------------|


Chorus

 LEAD GUITAR

|-----------17----------17----------17----------------------------------|
|----18----------18----------18--------------18^---22----23----20-------|
|-----------------------------------------------------------------------|
|-----------------------------------------------------------------------|
|-----------------------------------------------------------------------|
|-----------------------------------------------------------------------|


|-----------13----------13----------13----------------------------------|
|----15----------15----------15--------------15^---18----20----17-------|
|-----------------------------------------------------------------------|
|-----------------------------------------------------------------------|
|-----------------------------------------------------------------------|
|-----------------------------------------------------------------------|


|-----------13----------13----------13----------------------------------|
|----15----------15----------15--------------15^---18----20----17-------|
|-----------------------------------------------------------------------|
|-----------------------------------------------------------------------|
|-----------------------------------------------------------------------|
|-----------------------------------------------------------------------|


|-----------13----------13----------12-------13----12-------------------|
|----15----------15----------13--------------------------15----13-------|
|-----------------------------------------------------------------------|
|-----------------------------------------------------------------------|
|-----------------------------------------------------------------------|
|-----------------------------------------------------------------------|


|-----------17----------17----------17----------------------------------|
|----18----------18----------18--------------18^---22----23----20-------|
|-----------------------------------------------------------------------|
|-----------------------------------------------------------------------|
|-----------------------------------------------------------------------|
|-----------------------------------------------------------------------|


|-----------13----------13----------13----------------------------------|
|----15----------15----------15--------------15^---18----20----17-------|
|-----------------------------------------------------------------------|
|-----------------------------------------------------------------------|
|-----------------------------------------------------------------------|
|-----------------------------------------------------------------------|


|-----------13----------13----------13----------------------------------|
|----15----------15----------15--------------15^---18----20----17-------|
|-----------------------------------------------------------------------|
|-----------------------------------------------------------------------|
|-----------------------------------------------------------------------|
|-----------------------------------------------------------------------|


|-----------13----------13----------12-------13----12-------------------|
|----15----------15----------13--------------------------15----13-------|
|-----------------------------------------------------------------------|
|-----------------------------------------------------------------------|
|-----------------------------------------------------------------------|
|-----------------------------------------------------------------------|


 RHYTHM GUITAR

|---------------------------------|-------------------------------------|
|---------------------------------|-------------------------------------|
|---------------------------------|-------------------------------------|
|---0---0---0---0---0---0---0---0-|-0---0---0---0---10---10---10---10---|
|---0---0---0---0---0---0---0---0-|-0---0---0---0----7----7----7----7---|
|---0---0---0---0---0---0---0---0-|-0---0---0---0----0----0----0----0---|


|---------------------------------|-------------------------------------|
|---------------------------------|-------------------------------------|
|---------------------------------|-------------------------------------|
|---8---8---8---8---8---8---8---8-|-8---8-------------------------------|
|---8---8---8---8---8---8---8---8-|-8---8-------------------------------|
|---8---8---8---8---8---8---8---8-|-8---8---7---8---10----8----7----8---|


|---------------------------------|-------------------------------------|
|---------------------------------|-------------------------------------|
|---------------------------------|-------------------------------------|
|---5---5---5---5---5---5---5---5-|-7---7---7---7----7----7----7----7---|
|---5---5---5---5---5---5---5---5-|-5---5---5---5----5----5----5----5---|
|---5---5---5---5---5---5---5---5-|-5---5---5---5----5----5----5----5---|


|---------------------------------|-------------------------------------|
|---------------------------------|-------------------------------------|
|---------------------------------|-------------------------------------|
|---3---3---3---3---3---3---3---3-|-------------------------------------|
|---3---3---3---3---3---3---3---3-|-------------------------------------|
|---3---3---3---3---3---3---3---3-|-7---5---0---3---5----3----2----3----|


|---------------------------------|-------------------------------------|
|---------------------------------|-------------------------------------|
|---------------------------------|-------------------------------------|
|---0---0---0---0---0---0---0---0-|-0---0---0---0---10---10---10---10---|
|---0---0---0---0---0---0---0---0-|-0---0---0---0----7----7----7----7---|
|---0---0---0---0---0---0---0---0-|-0---0---0---0----0----0----0----0---|


|---------------------------------|-------------------------------------|
|---------------------------------|-------------------------------------|
|---------------------------------|-------------------------------------|
|-----------------------8--8--8-8-|-8---8---7---8---10----8----7----8---|
|---8--8--8--8----------8--8--8-8-|-8---8-------------------------------|
|---8--8--8--8--8---8---8--8--8-8-|-8---8-------------------------------|


|---------------------------------|-------------------------------------|
|---------------------------------|-------------------------------------|
|---------------------------------|-------------------------------------|
|---5---5---5---5---5---5---5---5-|-5---5---5---7----8----7----5----7---|
|---5---5---5---5---5---5---5---5-|-5---5-------------------------------|
|---5---5---5---5---5---5---5---5-|-5---5-------------------------------|


|---------------------------------|-------------------------------------|
|---------------------------------|-------------------------------------|
|---------------------------------|-------------------------------------|
|---3---3---3---3---3---3---3---3-|-------------------------------------|
|---3---3---3---3---3---3---3---3-|-------------------------------------|
|---3---3---3---3---3---3---3---3-|-7---5---0---3---5----3----2----3----|



|-----------------------------------------------------------------------|
|-----------------------------------------------------------------------|
|-----------------------------------------------------------------------|
|-----------------------------------------------------------------------|
|-----------------------------------------------------------------------|
|---5---3---0---2---3---2---0---2---7---5---0---3---5---3---2---3-------|


|--17-13----------13-18-13---------|
|--------15----15----------15------|
|-----------14----------------15---|
|----------------------------------|
|----------------------------------|
|----------------------------------|


|-----------------------------------------------------------------------|
|-----------------------------------------------------------------------|
|-----------------------------------------------------------------------|
|-----------------------------------------------------------------------|
|-----------------------------------------------------------------------|
|----7---5---0---3---5---3---2---3----5---3---0---2---3---2---0---2-----|


|---------------------------------------17-13----------13-18-13---------|
|---------------------------------------------15----15----------15------|
|------------------------------------------------14----------------15---|
|-----------------------------------------------------------------------|
|-----------------------------------------------------------------------|
|----7---5---0---3---5---3---2---3--------------------------------------|


|-----------------------------------------------------------------------|
|-----------------------------------------------------------------------|
|-----------------------------------------------------------------------|
|-----------------------------------------------------------------------|
|-----------------------------------------------------------------------|
|----12------------------13~--------------------------------------------|


|-----------------------------------------------------------------------|
|-----------------------------------------------------------------------|
|-----------------------------------------------------------------------|
|-----------------------------------------------------------------------|
|-------------------5-------3-------------------------------------------|
|---0---0---0---0-------0-------0---0---3---5---6---5---3---0---3-------|


|-----------------------------------------------------------------------|
|-----------------------------------------------------------------------|
|-----------------------------------------------------------------------|
|---0~------------------------------------------------------------------|
|---0~------------------------------------------------------------------|
|---0~------------------------------------------------------------------|




SOLO

|---------------------------10h13h15------13^-----15p13----------18^----|
|---13^---------13^----------------------------------------17-----------|
|-----------------------------------------------------------------------|
|-----------------------------------------------------------------------|
|-----------------------------------------------------------------------|
|-----------------------------------------------------------------------|


|---------------------------------------------------------10-12-13------|
|---------------------------------------8-10-11-10-11-14----------------|
|------------------------6-7-9--7-9-10----------------------------------|
|----------5-7-8-7-8-10-------------------------------------------------|
|---5-7-8---------------------------------------------------------------|
|-----------------------------------------------------------------------|


|---13-12-10-12---------------------------------------------------------|
|----------------15-14-15-14-11-14-11-10------13^--------13^------------|
|-----------------------------------------------------------------------|
|-----------------------------------------------------------------------|
|-----------------------------------------------------------------------|
|-----------------------------------------------------------------------|


|--------------------------------------------------|
|----------18-15-18-15-14-15-18-15-18-15-14-15-----|
|-16pause------------------------------------------|
|--------------------------------------------------|
|--------------------------------------------------|
|--------------------------------------------------|


|--------------------------------------------------|
|----------18-15-18-15-14-15-18-15-18-15-14-15-----|
|-16pause------------------------------------------|
|--------------------------------------------------|
|--------------------------------------------------|
|--------------------------------------------------|


|--------------------------------------------------|
|----------18-15-18-15-14-15-18-15-18-15-14-15-----|
|-16pause------------------------------------------|
|--------------------------------------------------|
|--------------------------------------------------|
|--------------------------------------------------|


|--------------------------------------------------|
|---18-17-15-------------------14-15-17------------|
|------------18-17-15-14---------------------------|
|------------------------19-20---------------------|
|--------------------------------------------------|
|--------------------------------------------------|


|----13-15-16-17-16-15-13-16-13-16-17-16-13--------|
|--------------------------------------------------|
|--------------------------------------------------|
|--------------------------------------------------|
|--------------------------------------------------|
|--------------------------------------------------|


|----15-16-17-16-15-13-16-13-16-17-16-15-13--------|
|--------------------------------------------------|
|--------------------------------------------------|
|--------------------------------------------------|
|--------------------------------------------------|
|--------------------------------------------------|


|----16-17-18-17-16-15-17-15-17-18-17-15-17--------|
|--------------------------------------------------|
|--------------------------------------------------|
|--------------------------------------------------|
|--------------------------------------------------|
|--------------------------------------------------|


|----18-21-18-17-15----------15-17-18-20-----20^---|
|-------------------18-17-18-----------------------|
|--------------------------------------------------|
|--------------------------------------------------|
|--------------------------------------------------|
|--------------------------------------------------|



|-----------------------------------------------------------------------|
|-----------------------------------------------------------------------|
|-----------------------------------------------------------------------|
|-----------------------------------------------------------------------|
|-----------------------------------------------------------------------|
|---0--0--0----0--0--0----0--0--0----0--0~--0----0--0--0----0--0-x--0---|


|-----------------------------------------------------------------------|
|-----------------------------------------------------------------------|
|-----------------------------------------------------------------------|
|-----------------------------------------------------------------------|
|---3-------------------------------------------------------------------|
|-------6---5---3---0---3---5---3----0--0--0----0--0--0----0--0---x--0--|


|-----------------------------------------------------------------------|
|-----------------------------------------------------------------------|
|-----------------------------------------------------------------------|
|-----------------------------------------------------------------------|
|-----------------------------------------------------------------------|
|---0--0--0----0--0--0----0--0--0----0--0~--0----0--0--0----0--0-x--0---| pause



|---------------------------------------------------------------------------|
|---------------------------------------------------------------------------|
|---------------------------------------------------------------------------|
|---------------------------------------------------------------------------|
|---------------------------------------------------------------------------|
|-0--0----0--0--0----0--0---x--0----0--0--0----0--0--0----0--0--0----0--0~--|


|-----------------------------------------------------------------------|
|-----------------------------------------------------------------------|
|-----------------------------------------------------------------------|
|-----------------------------------------------------------------------|
|-----------------------------------3-----------------------------------|
|-0--0----0--0--0----0--0---x--0--------6---5---3---0---3---5---3-------|


|---------------------------------------------------------------------------|
|---------------------------------------------------------------------------|
|---------------------------------------------------------------------------|
|---------------------------------------------------------------------------|
|---------------------------------------------------------------------------|
|-0--0----0--0--0----0--0---x--0----0--0--0----0--0--0----0--0--0----0--0~--|


|-----------------------------------------------------------------------|
|-----------------------------------------------------------------------|
|-----------------------------------------------------------------------|
|-----------------------------------------------------------------------|
|-----------------------------------3-----------------------------------|
|-0--0----0--0--0----0--0---x--0--------6---5---3---0---3---5---3-------|



Chorus

 LEAD GUITAR

|-----------17----------17----------17----------------------------------|
|----18----------18----------18--------------18^---22----23----20-------|
|-----------------------------------------------------------------------|
|-----------------------------------------------------------------------|
|-----------------------------------------------------------------------|
|-----------------------------------------------------------------------|


|-----------13----------13----------13----------------------------------|
|----15----------15----------15--------------15^---18----20----17-------|
|-----------------------------------------------------------------------|
|-----------------------------------------------------------------------|
|-----------------------------------------------------------------------|
|-----------------------------------------------------------------------|


|-----------13----------13----------13----------------------------------|
|----15----------15----------15--------------15^---18----20----17-------|
|-----------------------------------------------------------------------|
|-----------------------------------------------------------------------|
|-----------------------------------------------------------------------|
|-----------------------------------------------------------------------|


|-----------13----------13----------12-------13----12-------------------|
|----15----------15----------13--------------------------15----13-------|
|-----------------------------------------------------------------------|
|-----------------------------------------------------------------------|
|-----------------------------------------------------------------------|
|-----------------------------------------------------------------------|


|-----------17----------17----------17----------------------------------|
|----18----------18----------18--------------18^---22----23----20-------|
|-----------------------------------------------------------------------|
|-----------------------------------------------------------------------|
|-----------------------------------------------------------------------|
|-----------------------------------------------------------------------|


|-----------13----------13----------13----------------------------------|
|----15----------15----------15--------------15^---18----20----17-------|
|-----------------------------------------------------------------------|
|-----------------------------------------------------------------------|
|-----------------------------------------------------------------------|
|-----------------------------------------------------------------------|


|-----------13----------13----------13----------------------------------|
|----15----------15----------15--------------15^---18----20----17-------|
|-----------------------------------------------------------------------|
|-----------------------------------------------------------------------|
|-----------------------------------------------------------------------|
|-----------------------------------------------------------------------|


|-----------13----------13----------12-------13----12-------------------|
|----15----------15----------13--------------------------15----13-------|
|-----------------------------------------------------------------------|
|-----------------------------------------------------------------------|
|-----------------------------------------------------------------------|
|-----------------------------------------------------------------------|


 RHYTHM GUITAR

|---------------------------------|-------------------------------------|
|---------------------------------|-------------------------------------|
|---------------------------------|-------------------------------------|
|---0---0---0---0---0---0---0---0-|-0---0---0---0---10---10---10---10---|
|---0---0---0---0---0---0---0---0-|-0---0---0---0----7----7----7----7---|
|---0---0---0---0---0---0---0---0-|-0---0---0---0----0----0----0----0---|


|---------------------------------|-------------------------------------|
|---------------------------------|-------------------------------------|
|---------------------------------|-------------------------------------|
|---8---8---8---8---8---8---8---8-|-8---8-------------------------------|
|---8---8---8---8---8---8---8---8-|-8---8-------------------------------|
|---8---8---8---8---8---8---8---8-|-8---8---7---8---10----8----7----8---|


|---------------------------------|-------------------------------------|
|---------------------------------|-------------------------------------|
|---------------------------------|-------------------------------------|
|---5---5---5---5---5---5---5---5-|-7---7---7---7----7----7----7----7---|
|---5---5---5---5---5---5---5---5-|-5---5---5---5----5----5----5----5---|
|---5---5---5---5---5---5---5---5-|-5---5---5---5----5----5----5----5---|


|---------------------------------|-------------------------------------|
|---------------------------------|-------------------------------------|
|---------------------------------|-------------------------------------|
|---3---3---3---3---3---3---3---3-|-------------------------------------|
|---3---3---3---3---3---3---3---3-|-------------------------------------|
|---3---3---3---3---3---3---3---3-|-7---5---0---3---5----3----2----3----|


|---------------------------------|-------------------------------------|
|---------------------------------|-------------------------------------|
|---------------------------------|-------------------------------------|
|---0---0---0---0---0---0---0---0-|-0---0---0---0---10---10---10---10---|
|---0---0---0---0---0---0---0---0-|-0---0---0---0----7----7----7----7---|
|---0---0---0---0---0---0---0---0-|-0---0---0---0----0----0----0----0---|


|---------------------------------|-------------------------------------|
|---------------------------------|-------------------------------------|
|---------------------------------|-------------------------------------|
|-----------------------8--8--8-8-|-8---8---7---8---10----8----7----8---|
|---8--8--8--8----------8--8--8-8-|-8---8-------------------------------|
|---8--8--8--8--8---8---8--8--8-8-|-8---8-------------------------------|


|---------------------------------|-------------------------------------|
|---------------------------------|-------------------------------------|
|---------------------------------|-------------------------------------|
|---5---5---5---5---5---5---5---5-|-5---5---5---7----8----7----5----7---|
|---5---5---5---5---5---5---5---5-|-5---5-------------------------------|
|---5---5---5---5---5---5---5---5-|-5---5-------------------------------|


|---------------------------------|-------------------------------------|
|---------------------------------|-------------------------------------|
|---------------------------------|-------------------------------------|
|---3---3---3---3---3---3---3---3-|-------------------------------------|
|---3---3---3---3---3---3---3---3-|-------------------------------------|
|---3---3---3---3---3---3---3---3-|-7---5---0---3---5----3----2----3----|



OUTRO

|-----------------------------------------------------------------------|
|-----------------------------------------------------------------------|
|-----------------------------------------------------------------------|
|-----------------------------------------------------------------------|
|--------5---7---8---7---5----------------------------------------------|
|---0-------------------------8---7---5---0---5---7---5---3---5---------|


|-----------------------------------------------------------------------|
|-----------------------------------------------------------------------|
|-----------------------------------------------------------------------|
|-----------------------------------------5---7---8---7---5-------------|
|--------5---7---8---7---5----7---5---3-----------------------8---------|
|---0-------------------------------------------------------------------|


|-----------------------------------------------------------------------|
|-----------------------------------------------------------------------|
|-----------------------------------------------------------------------|
|-----------------------------------------------------------------------|
|--------5---7---8---7---5----------------------------------------------|
|---0-------------------------8---7---5---0---5---7---5---3---5---------|


|-----------------------------------------------------------------------|
|-----------------------------------------------------------------------|
|-----------------------------------------------------------------------|
|-----------------------------------------------------------------------|
|-----------------------------------------------------------------------|
|---3---3----3---5----5---5----7---7-----7---2---2---2---2---2---2---2--|


|-----------------------------------------------------------------------|
|-----------------------------------------------------------------------|
|-----------------------------------------------------------------------|
|-----------------------------------------------------------------------|
|--------5---7---8---7---5----------------------------------------------|
|---0-------------------------8---7---5---0---5---7---5---3---5---------|


|-----------------------------------------------------------------------|
|-----------------------------------------------------------------------|
|-----------------------------------------------------------------------|
|-----------------------------------------5---7---8---7---5-------------|
|--------5---7---8---7---5----7---5---3-----------------------8---------|
|---0-------------------------------------------------------------------|


|-----------------------------------------------------------------------|
|-----------------------------------------------------------------------|
|-----------------------------------------------------------------------|
|-----------------------------------------------------------------------|
|--------5---7---8---7---5----------------------------------------------|
|---0-------------------------8---7---5---0---5---7---5---3---5---------|


|-----------------------------------------------------------------------|
|-----------------------------------------------------------------------|
|-----------------------------------------------------------------------|
|-----------------------------------------------------------------------|
|-----------------------------------------------------------------------|
|---3---3----3---5----5---5----7---7-----7---2---2---2---2---2---2---2--|


|-----------------------------------------------------------------------|
|-----------------------------------------------------------------------|
|-----------------------------------------------------------------------|
|-------------------------------------------------0~--------------------|
|----0--------------------0-----------------------0~--------------------|
|----0------0---0---0-----0----------0--0--0------0~--------------------|



Video: http://www.youtube.com/watch?v=ylRG92Q3Z2c


****************************************************************************
Tap to rate this tab
 
# A B C D E F G H I J K L M N O P Q R S T U V W X Y Z