Song name
# A B C D E F G H I J K L M N O P Q R S T U V W X Y Z

Black Veil Brides - We Stitch Theses Wounds tab

Intro
D# --------------------------------------------------------------------------|
A# -------8--10---8h10/12----12/13--13--12-10h12p10--8--10--7h8/10--8p7h8----|
F# --------------------------------------------------------------------------|
C# --------------------------------------------------------------------------|
G# --------------------------------------------------------------------------|
C# --------------------------------------------------------------------------|

D# -----------------------8/10--10--8--7h8p7---5--3/15-----------------------|
A# ------8--10---8h10/12-----------------------------------------------------|
F# --------------------------------------------------------------------------|
C# --------------------------------------------------------------------------|
G# --------------------------------------------------------------------------|
C# --------------------------------------------------------------------------|


C# --------------------------------------------------------------------------|
A# --------------------------------------------------------------------------|
F# -----------5--4--4h5p4----------------------------------------------------|
C# --2-2-2-2---------------2p0---5-5-5-5---4--5--7---4-4h5---2-2-2-2---------|
G# --2-2-2-2---------------------5-5-5-5---------------------2-2-2-2---------|
C# --2-2-2-2---------------------5-5-5-5---------------------2-2-2-2---------|
      pm-pm                       pm-pm                       pm-pm

C# --------------------------------------------------------------------------|
A# --------------------------------------------------------------------------|
F# ---4h5p4------------------------------------------------------------------|
C# ----------7p4---5p4--4p0--0-0-0-0---4444-5555-7777-555--------------------|
G# --------------------------0-0-0-0-----------------------------------------|
C# --------------------------0-0-0-0-----------------------------------------|
                              pm-pm

Chorus
C# -----------------------------------------------|
A# -----------------------------------------------|
F# ---5-5-5-5-5-5-5-5-----------------------------|
C# ---5-5-5-5-5-5-5-5---2-2-2-2-2-2-2-2-----------|   X3
G# ---3-3-3-3-3-3-3-3---2-2-2-2-2-2-2-2-----------|
C# ---------------------2-2-2-2-2-2-2-2-----------|

Bridge
C# -----------------------------------------------|
A# -----------------------------------------------|
F# -----------------------------------------------|
C# -2--2--2-2-2-2--2---0--0--0-0-0-0--0-----------|
G# -2--2--2-2-2-2--2---0--0--0-0-0-0--0-----------|
C# -2--2--2-2-2-2--2---0--0--0-0-0-0--0-----------|

C# -----------------|
A# -----------------|
F# --------5--4-----|
C# -2--0---5--4-2---|  During solo
G# -2--0---3--2-2---|
C# -2--0-------2----|

C# ------------------------|
A# ------------------------|
F# ------5--5-4--------5---|   After solo
C# -2-5--5--5-4-2--5---5---|
G# -2-5--3--3-2-0--5---3---|
C# -2-5------------5-------|

So that's pretty much the whole song. I don't know the solo but you can improvise.
Tap to rate this tab
 
# A B C D E F G H I J K L M N O P Q R S T U V W X Y Z