Song name
# A B C D E F G H I J K L M N O P Q R S T U V W X Y Z

Black Veil Brides - Saviour tab

The full song hasn't been posted yet so I thought I'd do it

This song can also be played in E Flat or Drop D
All the song is played in picking
In this there is acoustic&electric parts.



Acoustic Intro:

e|--------------------------------------------|
B|--------------------------------------------|
G|--------------------------------------------|
D|----4------------4--------4------4----------|
A|----7------------5--------3------5----------|
E|--------------------------------------------|

Picking for intro is
4&7  A G D G B G D G               A G D G

4&5  A G D G

3&4  A G D G B G D G

4&5  A D G D

Acoustic Verse

e|-------------------------------------------|
B|-------------------------------------------|
G|-----------------------------0-------------|
D|----2-------4-------2----4------4---2------|
A|----2-------2-------2------------------2---|
E|-------------------------------------------|
 ______________
|Picking:      |
|2D&2A E A D   |
|2A&4D E A D G |
________________



e|------------------------------------------|
B|------------------------------------------|
G|------------------------------------------|
D|-----2--------2---0---2-------------------|
A|-----3----0-------------------------------|
E|------------------------------------------|

e|------------------------------------------|
B|----3---3---------------------------------|
G|-----------0------0-----------2-----------|
D|----2---------2-----------0--------0------|
A|------------------------------------------|
E|-----------------------2------------------|

e|------------------------------------------|
B|--------0---------------------------------|
G|----2------2--------------0--------0------|
D|----3-------------------0-------------0---|
A|---------------2----------------2---------|
E|--------------------3---------3-----------|

e|------------------------------------------|
B|------------------------------------------|
G|------------------0-----------------------|
D|--------------0---------------------------|
A|------2----2------------------------------|
E|----2----2--------------------------------|

'So Hear My Voice'

e|------------------------------------------|
B|----3-------------------------------------|
G|------------------------------------------|
D|----2-------------------------------------|
A|----3-------------------------------------|
E|------------------------------------------|

Picking:
 A G D G B G D G

e|------------------------------------------|
B|------------------------------------------|
G|------------------------------------------|
D|------4----3------------------------------|
A|------5-----------------------------------|
E|------------------------------------------|

Picking
A G D G B G D G

e|------------------------------------------|
B|------------------------------------------|
G|------------------------------------------|
D|----2-------------------------------------|
A|----2-------------------------------------|
E|------------------------------------------|

Picking:
E A D G

e|------------------------------------------|
B|------------------------------------------|
G|------------------------------------------|
D|--2---------------------------------------|
A|--2---------------------------------------|
E|--2---------------------------------------|

Picking:
E A D G

e|------------------------------------------|
B|------------------------------------------|
G|------------------------------------------|
D|------------------------------------------|
A|---2--------------------------------------|
E|---3--------------------------------------|

Picking:
E A D G


e|------------------------------------------|
B|------------------------------------------|
G|---------------0--------------------------|
D|------------2-----------------------------|
A|--------3---------------------------------|
E|----5-------------------------------------|

'I'm Here'


e|-------------------------------------------|
B|-------------------------------------------|
G|-----------------------------0-------------|
D|----2-------4-------2----4------4---2------|
A|----2-------2-------2------------------2---|
E|-------------------------------------------|
 ______________
|Picking:      |
|2D&2A E A D   |
|2A&4D E A D G |
________________



e|------------------------------------------|
B|------------------------------------------|
G|------------------------------------------|
D|-----2--------2---0---2-------------------|
A|-----3----0-------------------------------|
E|------------------------------------------|

e|------------------------------------------|
B|----3---3---------------------------------|
G|-----------0------0-----------2-----------|
D|----2---------2-----------0--------0------|
A|------------------------------------------|
E|-----------------------2------------------|

e|------------------------------------------|
B|--------0---------------------------------|
G|----2------2--------------0--------0------|
D|----3-------------------0-------------0---|
A|---------------2----------------2---------|
E|--------------------3---------3-----------|

e|------------------------------------------|
B|------------------------------------------|
G|------------------0-----------------------|
D|--------------0---------------------------|
A|------2----2------------------------------|
E|----2----2--------------------------------|

e|------------------------------------------|
B|------------------------------------------|
G|-------------------------0----------------|
D|------------------------------------------|
A|------0----2------------------------------|
E|---3-------------0------------------------|

e|------------------------------------------|
B|------------0--------0--------------------|
G|-------0------------------0---------------|
D|---4------------0-------------------------|
A|------------------------------------------|
E|------------------------------------------|

e|------------------------------------------|
B|------------------0-----------------------|
G|------0-------0-------0-------------------|
D|----------4-------------------------------|
A|--3---------------------------------------|
E|------------------------------------------|

e|------------------------------------------|
B|----------------------0-------------------|
G|---------0-----0---------0----------------|
D|------------4-----------------------------|
A|-----5------------------------------------|
E|------------------------------------------|

e|------------------------------------------|
B|----------------0-------------------------|
G|------0-----0------0----------------------|
D|----------4-------------------------------|
A|----2-------------------------------------|
E|------------------------------------------|


Electric Played in E Flat/Drop D


e|------------------------------------------|
B|----8----8---7----8---7---8---------------|
G|------------------------------------------|
D|------------------------------------------|
A|------------------------------------------|
E|------------------------------------------|

e|------------------------------------------|
B|--10----12----/---13----12---12hp13-------|
G|------------------------------------------|
D|------------------------------------------|
A|------------------------------------------|
E|------------------------------------------|

e|------------------------------------------|
B|--10---8---7------------------------------|
G|---------------9----4/9---5---2----4hp2---|
D|------------------------------------------|
A|------------------------------------------|
E|------------------------------------------|

e|-0----------------------------------------|
B|-----8---7---12---10/15---13hp12---10-----|
G|------------------------------------------|
D|------------------------------------------|
A|------------------------------------------|
E|------------------------------------------|

e|------------------------------------------|
B|-10---8---7-------------------------------|
G|--------------9---4\9---5---4---2----4hp2-|
D|------------------------------------------|
A|------------------------------------------|
E|------------------------------------------|

e|------------------------------------------|
B|---8---7---12---10/15--13hp12---10--------|
G|------------------------------------------|
D|------------------------------------------|
A|------------------------------------------|
E|-0----------------------------------------|

e|--------------------------------------------------------|
B|-8--8--10---12---12---13---15--15---13---12---10----8---|
G|--------------------------------------------------------|
D|--------------------------------------------------------|
A|--------------------------------------------------------|
E|--------------------------------------------------------|

e|------------------------------------------|
B|---8hp10---7------------------------------|
G|------------------------------------------|
D|------------------------------------------|
A|------------------------------------------|
E|------------------------------------------|


************************************

| /   slide up
| \   slide down
| h   hammer-on
| p   pull-off
| ~   vibrato
| +   harmonic
| x   Mute note
| b   Bend
| pb  Pre-bend
| br  Bend release
| pbr Pre-bend release
| brb Bend release bend

************************************
Tap to rate this tab
# A B C D E F G H I J K L M N O P Q R S T U V W X Y Z