Song name
# A B C D E F G H I J K L M N O P Q R S T U V W X Y Z

Black Widow - Come To The Sabbat tab

-------------------------------------------------------------------------------
                             COME TO THE SABBAT - Black Widow
-------------------------------------------------------------------------------
Tabbed by: Blaisetheslayer
E-mail:

Tuning: Standard. This is keyboard/flute tabbed for guitar. Only one riff to this
song, play it as needed.

e|-----------------------------------------------------------------------------|
B|----------------------------12----10-----------------------------------------|
G|-12-11---------------12-11----12---------------------------------------------|
D|-------12-14-10--------------------------------------------------------------|
A|-----------------------------------------------------------------------------|
E|-----------------------------------------------------------------------------|


During the "Come come come to the Sabbat" chant, there are single notes 
intermittently played. Like so.
e|---------------------------------------------------------------------------|
B|-----------12--------------------------------------------------------------|
G|--12-----------------------------------------------------------------------|
D|---------------------------------------------------------------------------|
A|---------------------------------------------------------------------------|
E|---------------------------------------------------------------------------|


************************************

| /   slide up
| \   slide down
| h   hammer-on
| p   pull-off
| ~   vibrato
| +   harmonic
| x   Mute note
| b   Bend
| pb  Pre-bend
| br  Bend release
| pbr Pre-bend release
| brb Bend release bend

************************************
Tap to rate this tab
 
# A B C D E F G H I J K L M N O P Q R S T U V W X Y Z