Song name
# A B C D E F G H I J K L M N O P Q R S T U V W X Y Z

Black - 2 Days To Live tab

e------------------------------------|
B-----------------------------------*|
G-------------------3--3-3-----------|
D---5--5-5--1--1-1-3--3-----3--3-3---|
A--5--5----1--1---1--1--1--3--3-----*|
D-5--5--5-1--1--1---------3--3--3----|
(Repeat 2 Times)

Then
------------------------------------------------------------------|
------------------------------------------------------------------|
------------------------------------------------------------------|
-7-7----5-5----3-3---2-2----5-5----7-7----5-5--3-3--2-2----5-5----|
-7-7----5-5----3-3---2-2--3-5-5--5-7-7----5-5--3-3--2-2--3-5-5--5-|
-7-7----5-5----3-3---2-2-2--5-5-4--7-7----5-5--3-3--2-2-2--5-5-4--|

--------------------------------------------------------------------|
--------------------------------------------------------------------|
--------------------------------------------------------------------|
-7-7-xx-xx-xx-xx-3-3-xx-xx-xx-xx-10-10-xx-xx-xx-xx-5-5-xx-xx-xx-xx6-|
-7-7-xx-xx-xx-xx-3-3-xx-xx-xx-xx-10-10-xx-xx-xx-xx-5-5-xx-xx-xx-xx6-|
-7-7-xx-xx-xx-xx-3-3-xx-xx-xx-xx-10-10-xx-xx-xx-xx-5-5-xx-xx-xx-xx6-|
Twice Repeat

------------------------------------------------------------------|
-----------------------------------------------------------------*|
------------------------------------3-----3---3-------------------|
----5-----5---5-----1-----1---1-----3-----3---3-----3-----3---3---|
----5-----5---5-----1-----1---1-1-1-1-1-1-1-1-1-----3-----3---3--*|
5-5-5-5-5-5-5-5-1-1-1-1-1-1-1-1-----------------3-3-3-3-3-3-3-3---|
Repeat Twice

and thats it. its a song i made but hope yall lik it
Black rose is in www.facebook.com
Tap to rate this tab
# A B C D E F G H I J K L M N O P Q R S T U V W X Y Z