Guitaretab - guitar tabs
Song name
# A B C D E F G H I J K L M N O P Q R S T U V W X Y Z
Home / B / Black / Sholk tab

Black - Sholk tab

Song: Sholk
Artist: Black
Album: Uthshober Por

Hi this is darkage with another black song. I picked it all by myself. Its really easy
itís a great song. Its not fully accurate but it sounds good with the song. So try it and
forget  to rate it.

Tuning-DADGBe

Verse-1-Tahsan sings
                          p.m                                       p.m
e-----------------------------|
B-----------------------------|
G-----------------------------|
D---11-----7------- 14-----9--|
A----9------5-------12-----7--|
D----9------5-------12-----7--|

Use these tabs and the rhythm will be same as the second verse where Jon sings except
it will palm mute in the first verse.

Chorus- Elita.
[ Tab from: http://www.guitaretab.com/b/black/92512.html ]
             p.m                                                       p.m
e------------------------------|
B------------------------------|
G------------------------------|
D-----------7------- 14-----9--|
A----4------5-------12-----7---|
D----4------5-------12-----7---|

The chorus when elita sings will also be in palm mute like the first verse.

Verse-2-Jon

e-----------------------------|
B-----------------------------|
G-----------------------------|
D---11-----7------- 14-----9--|
A----9------5-------12-----7--|
D----9------5-------12-----7--|

 Verse 2 will be open. There will be no palm mute.


Ending chorus-Tahsan, Jon & Elita.

e------------------------------|
B------------------------------|
G------------------------------|
D-----------7------- 14-----9--|
A----4------5-------12-----7---|
D----4------5-------12-----7---|

The final chorus will also be loud. And if u want to rock it up at the end turn the
to distortion. It sounds good. End the whole song with the verse tabs in distortion to have
better effect. Hope you do well. Any comments or mistake you want to point or even if 
have the real thing are welcomed.
Related for Sholk tab