Song name
# A B C D E F G H I J K L M N O P Q R S T U V W X Y Z

Blackberry Smoke - Restless tab

Blackberry Smoke
Restless

tabbed by *sweet_inc*

Tuning: Standard

verse sounds the best if you start each chord progression on the upstroke

e|-------------------------------|
B|-------------------------------|
G|---------2-4-2-----------------|
D|---------0-0-0--2-4-2--2-------|
A|--2-4-2--0-0-0--0-0-0--0-------|
E|--0-0-0-------------------3b---|

and this is the part with "can't play a big enough honky tonk"
e|-------------------------------|
B|-------------------------------|
G|---------2-4-2----0------------|
D|---------0-0-0--2-0-2----------|
A|--2-4-2--0-0-0--0-0-0----------|
E|--0-0-0-------------------3b---|

first solo bit (with wah)
e|----------------------------------|
B|---8--------8--------8------------|
G|-----9--7-9---9--7-9---9-9-7-9----|
D|----------------------------------|
A|----------------------------------|
E|----------------------------------|

e|----------------------------------|
B|---8--------8---8-10-8------------|
G|-----9--7-9---9--------9----------|
D|----------------------------------|
A|----------------------------------|
E|----------------------------------|

chorus
e|--------3-3--2-2--------3-3--2-2-------3-3-------|
B|--------3-3--3-3--------3-3--3-3-------3-3-------|
G|--------0-0--2-2--------0-0--2-2-------0-0--2-2--|
D|---2-2--0-0--0-0---2-2--0-0--0-0--2-2--0-0--2-2--|
A|---2-2-------------2-2------------2-2-------0-0--|
E|---0-0--3-3--------0-0--3-3-------0-0--3-3-------|

e|----------------------------|
B|----------------------------|
G|------5---7---x-x-----------|
D|--2---5---7---x-x-----------|
A|--2---3---5---x-x-----------|
E|--0----------------3b-------|

second chorus has the E-G-A progression played twice

verse riff plays behind solo
Tap to rate this tab
 
# A B C D E F G H I J K L M N O P Q R S T U V W X Y Z