Song name
# A B C D E F G H I J K L M N O P Q R S T U V W X Y Z

Blackberry Smoke - Scare The Devil tab

Scare the Devil
Blackberry SMoke

*sweet_inc*


Tuning: standard

main riff
e|-----------------------------------------------|
B|-3-3-----3--1-1-----3--3-3---------3-3---3-----|
G|-2-2-----2--2-2-----2--2-2---------2-2---2-----|
D|-0-0-0h4-0--0-0-0h3-0--0-0---------0-0---0-----|
A|---------------------------3-3-2p0-----3-------|
E|-----------------------------------------------|

e|-----------------------------------------------|
B|-3-3-----3--1-1-----3----------------3-3---3---|
G|-2-2-----2--2-2-----2----------------2-2---2---|
D|-0-0-0h4-0--0-0-0h3-0----------5-5-3-0-0---0---|
A|-----------------------3-3-2p0-5-5-3-----3-----|
E|-------------------------------3-3-1-----------|

verse
e|--------------------------|
B|--3-3-3-3-3-3-3-3-3---3---|
G|--2-2-2-0-0-0-2-2-2---2---|
D|--0-0-0-------0-0-0---0---|
A|--------3-3-3-------3-----|
E|--------------------------|

chorus
e|------------------------------------------------------------|
B|--------------------------------------------3-3---3-3---3---|
G|----------------2-2---2-2---2---------------2-2-4-2-2---2---|
D|----------------2-2-4-2-2-4-2-5-5-7-5-5-7-5-0-0-0-0-0---0---|
A|--5-5-7-5-5-7-5-0-0-0-0-0-0-0-3-3-3-3-3-3-3-----------3-----|
E|--3-3-3-3-3-3-3---------------------------------------------|

e|------------------------------------------------------------|
B|--3-3---3-3---3-----------------------------3-3---3-3---3---|
G|--2-2-4-2-2-4-2-2-2---2-2---2---------------2-2-4-2-2---2---|
D|--0-0-0-0-0-0-0-2-2-4-2-2-4-2-5-5-7-5-5-7-5-0-0-0-0-0---0---|
A|----------------0-0-0-0-0-0-0-3-3-3-3-3-3-3-----------3-----|
E|------------------------------------------------------------|

over the solo
e|------------------------------------------------------------|
B|---------------------------------------------------3--------|
G|---------2-2-2-2---------2-2-2-2-------------------2--------|
D|-2-2-2-2-2-2-2-2-2-2-2-2-2-2-2-2-2-2-2-2-5-5-5-5-3-0--3-5---|
A|-2-2-2-2-0-0-0-0-2-2-2-2-0-0-0-0-2-2-2-2-5-5-5-5-3----3-5---|
E|-0-0-0-0---------0-0-0-0---------0-0-0-0-3-3-3-3-1----1-3---|
Tap to rate this tab
# A B C D E F G H I J K L M N O P Q R S T U V W X Y Z