Song name
# A B C D E F G H I J K L M N O P Q R S T U V W X Y Z

Blackend - Regrets tab

Band: Blackend
Song: Regrets
Tuning: Drop D down a half step
Effects: wah, flanger, phaser

Intro and bridge: Distortion (clean w/ flanger during bridge)
-----------------------------------------------------
-----------------------------------------------------
-----------------------------------------------------
--8-7------------------------------------------------
--6-5--5-6-0---2-3-2-0--2-3-0------------------------
-------5-6-0---2-3-2/0--2-3-0------------------------

Verse: clean with Phaser
-----------------------------------------------------
-----------------------------------------------------
---------------------------------------5---------3--3
----7-----8-----7------7h8p7------2---------2-------3
-5-----5-----5-----5------------3---3-----3---3-----3
-----------------------------------------------------

Chorus: Distortion
-----------------------------------------------------
-------------------3-3----------------------6--6-----
-------------------2-2----------------------5--5-----
-0-0-0--0-0-0-0-0--0-0--12-12-12--12-12-----3--3-----
-0-0-0--0-0-0-0-0--0-0--10-10-10--10-10-----3--3-----
-0-0-0--0-0-0-0-0-------10-10-10--10-10-----3--3-----

Solo: Distortion w/ Wah pedal (slow swoops)
-------------------10--13---15-|-15h18p15-------------
-------------------------------|-----------15-18-15X2-
-7--9---12--15-----------------|----------------------
-------------------------------|----------------------
-5--7---10--13-----------------|----------------------
-------------------------------|----------------------
Tap to rate this tab
 
# A B C D E F G H I J K L M N O P Q R S T U V W X Y Z