Song name
# A B C D E F G H I J K L M N O P Q R S T U V W X Y Z

Blackfield - Miss You tab

Song: Miss U
Artist: Blackfield
Album: Blackfield II
Year: 2007

Tabbed by: podruvan@yahoo.com

This is my first tab so I apologize if it's a bit confusing, but I hope
you will still find it helpful. Please feel free to send me feedback
(for the accuracy or my tabbing technique).


F/C:	x03210
Bbmaj7:	x13231

Intro Chords:

Bb, Am, Gm, Am, Bb, Am, Gm, Am, Bb, Bbmaj7


Intro riff:

e|---------6---------6-----6-------|
B|-----5-------5-------5-----5-----|
G|-7-------------7-------7-----7---|
D|---------------------------------|
A|---------------------------------|
E|---------------------------------|

e|---------5---------5-----5-------|
B|-----5-------5-------5-----5-----|
G|-5-------------5-------5-----5---|
D|---------------------------------|
A|---------------------------------|
E|---------------------------------|

e|---------3---------3-----3-------|
B|-----3-------3-------3-----3-----|
G|-3-------------3-------3-----3---|
D|---------------------------------|
A|---------------------------------|
E|---------------------------------|

e|---------5---------5-----5-------|
B|-----5-------5-------5-----5-----|
G|-5-------------5-------5-----5---|
D|---------------------------------|
A|---------------------------------|
E|---------------------------------|


Verse 1: (occasionally add the 3rd fret of the small e string)

                    F/C
They said you're in love again

               Am
And I tried to hide my pain

                   Em
I was buried in my bed

          F              Dm	Bb
With your pictures in my head


                F/C
You were living another life

           Am
It cuts me like a knife

                Em
I hope you understand

        F              Dm	G
I'm the one who's left behind


Chorus: x2

Bb
Tomorrow you'll be gone

         Am
And I'll miss you

          Gm
Yeah I'll miss you

          Am		Bbmaj7(on last time through)
Yeah I'll miss you


Verse 2:

They said you're in love again
And my eyes start to burn
Wherever you are now
I wish you could hear my silent sigh

It's not that I try to blame
It's just kind of a rainy day
I hope you understand
I'm the one who's left behind


Chorus x2


Guitar Solo/Fade Out: (same as verses)

F/C, Am, Em, F, Dm, Bb, F/C, Am, Em, F, Dm, G 
Tap to rate this tab
# A B C D E F G H I J K L M N O P Q R S T U V W X Y Z