Song name
# A B C D E F G H I J K L M N O P Q R S T U V W X Y Z

Blackfield - Blackfield tab

================================
    Blackfield - Blackfield
From the 2004 album "Blackfield"
================================

Tabbed by Pedro Macedo, A.K.A. Linkerman
This was tabbed with the help of the DVD "Live in New York City".
Comments and ratings are very much appreciated!
E-mails to "o_samaritano-hellboy(at)sapo.pt"

Standard tuning


Verse
e|-0----0-|
B|-1----0-|
G|-2----2-| x4
D|-3----2-|
A|-0----0-|
E|--------|


Chorus
e|-0----2----2----2----2----3----2----2----2----3-|
B|-1----2----3----2----3----3----3----3----3----3-|
G|-2----2----4----2----4----0----2----3----4----0-|
D|-3----4----4----4----4----0----0----0----0----0-|
A|-0----4----2----4----2----2-------------------2-|
E|------2---------2---------3-------------------3-|


Play Verse x3
Play Chorus


Break (played live)
e|-2----0-|
B|-3----3-|
G|-2----2-|
D|-0----0-|
A|--------|
E|--------|


Play Verse until the end
(x4, fading, in the album / x7 live)


Solo
e|-12--12--12-12--15--10--10h12-12-10-10p9--9--9\-|
B|------------------------------------------------|
G|------------------------------------------------|
D|------------------------------------------------|
A|------------------------------------------------|
E|------------------------------------------------|

e|-----------------------------------------|
B|-6--8--/10-/12-13-14--14-15-15h17--17--\-|
G|-----------------------------------------|
D|-----------------------------------------|
A|-----------------------------------------|
E|-----------------------------------------|
                                              _____
e|------------------------------------------|      |
B|-------------------3--------------------3-|      |
G|-5--4----5-4------0---5--4----5-4------0--|      |
D|------5-----5--0h2---------5-----5--0h2---|      |
A|------------------------------------------|      |
E|------------------------------------------|      \
                                                    > x2
e|----------------------------------------------|  /
B|------5------5--------------5-----------------|  |
G|-6--7-----6-7-7-6------6--7--------4----------|  |
D|---------7--------5-7----------5-5----5-5-0h2-|  |
A|----------------------------------------------|  |
E|----------------------------------------------| _|
Tap to rate this tab
# A B C D E F G H I J K L M N O P Q R S T U V W X Y Z