Song name
# A B C D E F G H I J K L M N O P Q R S T U V W X Y Z

Blackfield - The Hole In Me tab

guitar 1:

|---5-5---3-3---3-3---1-1------|
|---6-6---5-5---5-5---3-3------|
|------------------------------|
|------------------------------|
|-5-----------3----------------|
|-------5-----------3----------|

guitar 2:
|-13-12-13-------12-10-12-------|
|----------11-13----------10-11-|
|-------------------------------|
|-------------------------------|
|-------------------------------|
|-------------------------------|
Tap to rate this tab
# A B C D E F G H I J K L M N O P Q R S T U V W X Y Z