Song name
# A B C D E F G H I J K L M N O P Q R S T U V W X Y Z

Blackfield - Pain tab

================================
       Blackfield - Pain
From the 2004 album "Blackfield"
================================

Tabbed by Pedro Macedo, A.K.A. Linkerman
This was tabbed with the help of the DVD "Live in New York City".
Comments and ratings are very much appreciated!
E-mails to "o_samaritano-hellboy(at)sapo.pt"

Standard tuning

=============
Rhythm guitar
=============

Verse
e|------------------------------------------------------------------------|
B|------------------------------------------------------------------------|
G|------0---0---0--------0---0---0----------2---2---2---------2---2---2---| x3
D|----4---4---4---4----4---4---4---4------0---0---0---0-----0---0---0---0-|
A|-------------------3----------------------------------------------------|
E|-0------------------------------------3-----------------2---------------|


Chorus
C                           Bm            D            Am
  While i'm melting in the rain, deep in pain, she is so far.
C                    Bm         D             Am
  Will we ever meet again as friends, after so long?


Play Verse x2
Play Chorus x2


Bridge
e|-0-xxx-0-000-00-0-xxx-0-000-00-|
B|-0-xxx-0-000-00-0-xxx-0-000-00-|
G|-0-xxx-0-000-00-5-xxx-5-555-55-| x4
D|-5-xxx-5-555-55-2-xxx-2-222-22-|
A|-2-xxx-2-222-22-3-xxx-3-333-33-|
E|-0-xxx-0-000-00----------------|


Play Chorus


End
e|-0--------0--------3--------3-33-03-2-22-02-|
B|-0--------0--------3--------3-33-33-3-33-33-|
G|-0--------5--------0--------2-22-22-2-22-22-|
D|-5--------2--------0--------0-00-00-0-00-00-|
A|-2--------3--------2------------------------|
E|-0-----------------3------------------------|


===========
Lead guitar
===========

Intro
e|-12~~-15\10~~--/12\7~~-5-|
B|-------------------------|
G|-------------------------|
D|-------------------------|
A|-------------------------|
E|-------------------------|


Chorus 1 & 2
e|-------------------------------------------------|
B|-12~~~~--------10-/12~~-15-----------15----------|
G|---------------------------14-12-11-----14-12-11-|
D|-------------------------------------------------|
A|-------------------------------------------------|
E|-------------------------------------------------|

e|----------------------------------------------------|
B|-12~~~~--------10-/12~~-5/7-/8-/10-/15----15--------|
G|---------------------------------------14----14-\12-|
D|----------------------------------------------------|
A|----------------------------------------------------|
E|----------------------------------------------------|
   (Steven Wilson does variations in the Chorus, and it's mixed with the keys,
   so it's hard to figure out. This is just an idea for you to do your own thing.)


Verse 2           x3
e||---------------||-----|
B||---------------||-----|
G||o-4---7-9-11~-o||-12~-|
D||o-x---x-x--x--o||--x--|
A||--2~~-5-7--9~--||-10~-|
E||---------------||-----|


Bridge / Chorus 3
e|-----*12*~~----*7*---------------12~~-14~-10~---------------------12~~-|
B|---*12*~~~~-------*7*~~~~--------------------10~-12~~--3~~-5~~---------|
G|-*12*~~~~~~-*7*--------------------------------------------------------|
D|-----------------------------------------------------------------------|
A|-----------------------------------------------------------------------|
E|-----------------------------------------------------------------------|
   (Taken from the "Live in NYC" DVD.)


End
e|-15----14----12----14----15----14----12----14----15----14-----|
B|---12----12----12----12----12----12----12----12----12----12---|
G|-----12----12----12----12----12----12----12----12----12----12-|
D|--------------------------------------------------------------|
A|--------------------------------------------------------------|
E|--------------------------------------------------------------|

e|-------------------------------------------------------|
B|-15--15----13----12-------8-8h10p8-8-8-8---8-7-7-7---7-|
G|---12--12----12----12--------------------9---------9---|
D|---------12----12----12--------------------------------|
A|-------------------------------------------------------|
E|-------------------------------------------------------|
Tap to rate this tab
# A B C D E F G H I J K L M N O P Q R S T U V W X Y Z