Song name
# A B C D E F G H I J K L M N O P Q R S T U V W X Y Z

Blackfield - This Killer tab

                                  Blackfield
                                 This  Killer

Tuning: EADGBe


Intro/Verse:

|----------0---------------0-------|----------0--------------0-------|
|------7------7-7------7-----7-----|------7------7-7-----7-----7-----|
|--------6---------------------6---|--------6--------------------6---|
|--0---------------------0---------|--0--------------------0---------|
|----------------------------------|---------------------------------|
|----------------------------------|---------------------------------|

|----------0---------------0-------|----------0--------------0-------|
|------7------7-7------7-----7-----|------7------7-7-----7-----7-----|
|--------6---------------------6---|--------6--------------------6---|
|----------------------------------|---------------------------------|
|----------------------------------|---------------------------------|
|--7---------------------7---------|--7--------------------7---------|



Chorus:

This killer on the run...           (F#m)
|-----------2--------2--------2---------|
|---------------2--------2--------2-----|
|--------2--------2--------2--------2---|
|------4------4--------4--------4-------|   
|----4----------------------------------|
|--2------------------------------------|


He steals from me the sun...        (C#m)
|--4-------4-------4-------4------------|
|------5-------5-------5-------5--------|
|---------------------------------------|
|--------6-------6-------6-------5------|
|----4-------4-------4-------4----------|
|---------------------------------------|


He'll catch me off my guard...        (E)
|---------------------------------------|
|--9-------9-------9-------9------------|
|------9-------9-------9-------9--------|
|--------9-------9-------9-------9------|
|---------------------------------------|
|----0-------0-------0-------0----------|


He likes me when I'm down and when I'm... (B)
|---------------------------------------|
|--7------------------------------------|
|----------8-------8-------8------------|
|------9-------9-------9-------9--------|
|----9---9---9---9---9---9---9---9------|
|---------------------------------------|


sad... Falling man...           (G and A7)
|----------0------------------0----------|
|------7-------7----------7-------7------|
|----6------------------6----------------|
|----------------------------------------|   x4
|---------------------0-----0---0---0----|
|--3-----3---3---3-----------------------|



Solo:
|---------------------------------|---------------------/9-10-9--------|--9-9---------|
|----------10-10h12--------10-----|----------10-10h12------------------|--------------|
|-----9-11----------9-9h11----11--|-----9-11----------9---------11-11--|------9-9/11--|
|--11-----------------------------|--11--------------------------------|--------------|
|---------------------------------|------------------------------------|--------------|
|---------------------------------|------------------------------------|--------------|


|-----------------------|---------------------|---------|
|-----------------------|---------------------|---------|
|----6-7-9-6------------|----6-7-9-6----------|----7----|
|--7---------7-9--------|--7---------7-9------|--9------|
|----------------7-7h9--|----------------9-9--|------9--|
|-----------------------|---------------------|---------|

Chords underneath the solo are the same as the intro/verse.





Chords for the chorus:

F#m
This killer on the run
 
C#m
He steals from me the sun 

E
He'll catch me off my guard 

B                                       G
He likes me when I'm down and when I'm sad 

        A7     G     A7    G
Falling man 

        A7
Falling man 



Chords used:
F#m: 244222
C#m: 446654
E:   022100
B:   224442
G:   355433
A7:  575655


------------------------------


Marcelo Crispim
São Paulo - Brazil
Tap to rate this tab
 
# A B C D E F G H I J K L M N O P Q R S T U V W X Y Z