Blackfield - Where Is My Love chords

Highlighted       Show chord diagrams
-------------------------------------------------------------------------------
			     Where is my love? - Blackfield
-------------------------------------------------------------------------------
Tabbed by: XCrusherX@gmail.com

Tuning: Standard

Note: This tab is for the bonus version from their first album (Where you can only
hear Aviv Geffen in the chorus)!


Chords:

(Sorry if the names are wrong, I used chorderator.com to find them out. It's
important that you play them like this!)

Fmaj7/C     x33210
Cmaj7/G     332000
D           xx0232
Asus4       x02230
G5          3x003x
Dsus2       xx0230
Asus4/B     x20230



------------------------------------

Fmaj7/C                           Cmaj7/G
Endless fields of emptiness in my dark and wounded heart

            Fmaj7/C             Cmaj7/G
Where is my love? Where is my love?

Fmaj7/C                                  Cmaj7/G
The freezing moment when you turned your head and waved goodbye

            Fmaj7/C             Cmaj7/G
Where is my love? Where is my love?




D                                 Asus4
Even all the biggest storms can't take my pain away

              G5              Dsus2
Where is my love?

Asus4/B                     Asus4
Noisy happy people crossing streets from side to side

              G5              Dsus2
Where is my love?




Fmaj7/C                           Cmaj7/G
I gave you everything I could but you want the stars

            Fmaj7/C             Cmaj7/G
Where is my love? Where is my love?

Fmaj7/C                           Cmaj7/G
Endless fields of emptiness in my dark and wounded heart

            Fmaj7/C             Cmaj7/G
Where is my love? Where is my love?




D                                 Asus4
Even all the biggest storms can't take my pain away

              G5              Dsus2
Where is my love?

Asus4/B                     Asus4
Noisy happy people crossing streets from side to side

              G5              Dsus2
Where is my love?


Chords remain the same during the solo




Fmaj7/C                                  Cmaj7/G
The freezing moment when you turned your head and waved goodbye

            Fmaj7/C               Cmaj7/G
Where is my love?







Chorus-alternative:

If you wish to add the electric guitar you may play the chorus like this:

e-3--3--3--2-2--2-2--2--2--3--3--3--2-2--2-2--2--2-|
b-3--3--3--3-3--3-3--3--3--3--3--3--3-3--3-3--3--3-|
g-2--2--2--2-2--2-2--2--2--2--2--2--2-2--2-2--2--2-|
D-0--0--0--0-0--0-0--0--0--2--2--2--2-2--2-2--2--2-|
A--------------------------0--0--0--0-0--0-0--0--0-|
E--------------------------------------------------|
Even all the biggest storms can't take my pain away - Where is my

e-5--5--5--3-3--3-3--3--3--3--3--3--2-2--2-2--2--2-|
b-3--3--3--3-3--3-3--3--3--3--3--3--3-3--3-3--3--3-|
g-0--0--0--0-0--0-0--0--0--2--2--2--2-2--2-2--2--2-|
D-0--0--0--0-0--0-0--0--0--0--0--0--0-0--0-0--0--0-|
A-x--x--x--x-x--x-x--x--x--------------------------|
E-3--3--3--3-3--3-3--3--3--------------------------|
love?

e-3--3--3--2-2--2-2--2--2--3--3--3--2-2--2-2--2--2-|
b-3--3--3--3-3--3-3--3--3--3--3--3--3-3--3-3--3--3-|
g-2--2--2--2-2--2-2--2--2--2--2--2--2-2--2-2--2--2-|
D-0--0--0--0-0--0-0--0--0--2--2--2--2-2--2-2--2--2-|
A-2--2--2--2-2--2-2--2--2--0--0--0--0-0--0-0--0--0-|
E--------------------------------------------------|
Noisy happy people crossing streets from side to side - Where is my

e-5--5--5--3-3--3-3--3--3--3--3--3--2-2--2-2--2--2-|
b-3--3--3--3-3--3-3--3--3--3--3--3--3-3--3-3--3--3-|
g-0--0--0--0-0--0-0--0--0--2--2--2--2-2--2-2--2--2-|
D-0--0--0--0-0--0-0--0--0--0--0--0--0-0--0-0--0--0-|
A-x--x--x--x-x--x-x--x--x--------------------------|
E-3--3--3--3-3--3-3--3--3--------------------------|
love?


Have fun!


************************************

| /   slide up
| \   slide down
| h   hammer-on
| p   pull-off
| ~   vibrato
| +   harmonic
| x   Mute note
| b   Bend
| pb  Pre-bend
| br  Bend release
| pbr Pre-bend release
| brb Bend release bend

************************************
Tap to rate this tab
 
# A B C D E F G H I J K L M N O P Q R S T U V W X Y Z