Song name
# A B C D E F G H I J K L M N O P Q R S T U V W X Y Z

Blackfield - Far Away tab

#----------------------------------PLEASE NOTE---------------------------------#
#This file is the author's own work and represents their interpretation of the #
#song. You may only use this file for private study, scholarship, or research. #
#------------------------------------------------------------------------------#

                                    FAR AWAY
                            As recorded by Blackfield
                     (From the 2011 Album WELCOME TO MY DNA)

Transcribed by The SMH, Purple Cicada

Gtr I (E A D G B E) - 'Guitar' - capo on 3rd fret

109 bpm

Verse
 
||------------------|-----------------|-----------------|------------------|
||--------1---------|-------1---------|-------1---------|-------1----------|
||------0---0-------|-----0---0-------|-----4---4-------|-----4---4--------|
||----0-------0---0-|---0-------0---0-|---2-------2---2-|---2-------2---2--|
||--3-----------3---|-3-----------3---|-0-----------0---|-0-----------0----|
||------------------|-----------------|-----------------|------------------|



|-----------------|-----------------|-0-------0-------|-0-------0---------||
|-0-------0-------|-0-------0-------|-----1-------1---|-----1-------1-----||
|-----2-------2---|-----2-------2---|---2---2---2---2-|---2---2---2---2---||
|---0---0---0---0-|---0---0---0---0-|-3---------------|-3-----------------||
|-----------------|-----------------|-----------------|-------------------||
|-3---------------|-3---------------|-----------------|-------------------||


Chorus
  
||--0-------0-------|-0-------0-------|-0-------0-------|-3-------3-------|
||------3-------3---|-----1-------1---|-----1-------1---|-----3-------3---|
||----0---0---0---0-|---2---2---2---2-|---2---2---2---2-|---0---0---0---0-|
||--2---------------|-----------------|-----------------|-----------------|
||------------------|-0---------------|-3---------------|-----------------|
||------------------|-----------------|-----------------|-3---------------|



|-0-------0-------|-----------------|-0-------0-------|-0-------0---------||
|-----3-------3---|-1-------1-------|-----1-------1---|-----1-------1-----||
|---0---0---0---0-|-----2-------2---|---2---2---2---2-|---2---2---2---2---||
|-----------------|---2---2---2---2-|-----------------|-------------------||
|-3-----------2---|-0---------------|-3---------------|-3-----------------||
|-----------------|-----------------|-----------------|-------------------||


final chord

|-------*|
|-------*|
|-^0----*|
|-^2----*|
|-^3----*|
|-------*|


Tap to rate this tab
 
# A B C D E F G H I J K L M N O P Q R S T U V W X Y Z