Blackfield - Go To Hell tab

this is my first tab, i hope you like it :d
The tuning is Standard, easy for intermediate players, i think its 100% correct, any 
comment or suggestions will be appreciated,
Have Fun :d

Blackfield-Go to hell (Welcome to my Dna 2011)

Tuning:Standard


   Fuck you all....... Fuck you....I don't care...... I don't care
e--------------------------------------------------------------|
b--------------------------------------------------------------|
g--------------------------------------------------------------|
D------4------4------4-------4-------4-2---4-2-----4-2-----4-2-|
A-0-2----0-2----0-2-----0-2----0-------------------------------|
E---------------------------------4------4-----03-------3------|

             Anymo.......re   Anymo........re
e---------------------------------------------------------------------|
b---------------------------------------------------------------------|
g------2-----2----------2--------2-------2----2---------2------2------|
D----4-----4---4-----------------------4-----4--4---------------------|
A--5-----5-----------5--------5------5-----5---------5-------5----5---|
E-----------------3--------3-----------------------3-------3----------|


                     Go to hell...... Go to hell.......
e-----------------------------------------------------------------|
b-----------------------------------------------------------------|
g------6------6-6------5-----5-5-------6-----6-6-------4-----4-4--|
D----4------4--------3-----3-------------------------2-----2------|
A--5------5--------4-----4----------4------4-------2-----2--------|
E---------------------------------5------5------------------------|
Tap to rate this tab
 
# A B C D E F G H I J K L M N O P Q R S T U V W X Y Z