Song name
# A B C D E F G H I J K L M N O P Q R S T U V W X Y Z

Blackfield - On The Plane tab

Blackfield
On The Plane
Welcome To My DNA

This Is The Slide And The Guitar Solo

rb - Reverse Bend
 s - Slide
 h - Hammer On
 p - Pull Off


SLIDE
00:09
[---------s-----s----]
[--9-----9\7--10\9---]
[--------------------]
[--------------------]
[--------------------]
[--------------------]

00:34
[----s-------s------s--------]
[--12\14---14\12---9\7---9---]
[----------------------------]
[----------------------------]
[----------------------------]
[----------------------------]

00:56
[----s------s-----s-------s-----s-s-----s---]
[--10\9----7\9--12\14---14\12--7\9\7---9\---]
[-------------------------------------------]
[-------------------------------------------]
[-------------------------------------------]
[-------------------------------------------]

SOLO
01:53
[--rb--------------------------|--rb--------------------------------]
[--12-------h------h-----hold--|--12-------h------h-----------hold--]
[-----11--11-13--13-14-13------|-----11--11-13--13-14-13--11-9------]
[------------------------------|------------------------------------]
[------------------------------|------------------------------------]
[------------------------------|------------------------------------]

[---s-------p---------------------------|-----------------------------------]
[-10\12---10-9-10-12-9------------------|-----h----s-----s------------------]
[----------------------9-----s------s---|----8-9--9\11-11\13-------------s--]
[------------------------9--7\6--7-7\9--|-9-------------------14-------12\14]
[---------------------------------------|------------------------12-11------]
[---------------------------------------|-----------------------------------]

SLIDE
02:33
[------------------s-----s------s-----s-s---]
[---s-------s-----7\9--12\14--14\12--9\7\5--]
[--9\8----2-\-6-----------------------------]
[-------------------------------------------]
[-------------------------------------------]
[-------------------------------------------]
Tap to rate this tab
 
# A B C D E F G H I J K L M N O P Q R S T U V W X Y Z