Song name
# A B C D E F G H I J K L M N O P Q R S T U V W X Y Z

Blackfield - Zigota tab

Verse:

--0--------2----0----0--------1----2----0--|
--0--------2----1----0--------0----1----0--|
--1--------3----0----1--------3----0----1--|
--2--------2----2----2--------4----2----2--|
--2--------4----0----2--------4----0----2--|
--0--------2---------0------------------0--|




Chorus:

--0----0----1----2----2----0----3-------|
--3----3----1----0----3----1----0-------|
--3----2----2----0----2----2----0-------|
--0----0----3----2----0----2----0-------|
--x----x----3----2---------0----x-------|
--3----2----1----0--------------3-------|




--3----1----3----3----3----1----3----3--|
--4----3----1----3----4----3----1----3--|
--5----3----2----3----5----3----2----3--|
--5----3----3----1----5----3----3----1--|
--x----1--------------x----1------------|
--4-------------------4-----------------|




Outro:

--0--------2---||---0-----0-0---0-----------------------0-----0-0---0--------------------|
--0--------2---||---0-----0-0---0-----------------------0-----0-0---0--------------------|
--1--------3---||-9-9-9-9-9-9-9-9---------------------5-5-5-5-5-5-5-5--------------------|
--2--------2---||-9-9-9-9-9-9-9-9---8-8-8-8-x-8\7-7---5-5-5-5-5-5-5-5---8-8-8-8-x-8\7-7--|
--2--------4---||-7-7-7-7-7-7-7-7---8-8-8-8-x-8\7-7---3-3-3-3-3-3-3-3---8-8-8-8-x-8\7-7--|
--0--------2---||-0-0-0-0-0-0-0-0---6-6-6-6-x-6\5-5---------------------6-6-6-6-x-6\5-5--|




----0-----0-0---0--------------------||
----0-----0-0---0--------------------||
--6-6-6-6-6-6-6-6--------------------|| X2
--7-7-7-7-7-7-7-7---8-8-8-8-x-8\7-7--||
--7-7-7-7-7-7-7-7---8-8-8-8-x-8\7-7--||
--5-5-5-5-5-5-5-5---6-6-6-6-x-6\5-5--||




----0-----0-0---0--------------------|
----0-----0-0---0--------------------|
--9-9-9-9-9-9-9-9--------------------|
--9-9-9-9-9-9-9-9---8-8-8-8-x-8\7-7--|
--7-7-7-7-7-7-7-7---8-8-8-8-x-8\7-7--|
--0-0-0-0-0-0-0-0---6-6-6-6-x-6\5-5--|
Tap to rate this tab
 
# A B C D E F G H I J K L M N O P Q R S T U V W X Y Z