Song name
# A B C D E F G H I J K L M N O P Q R S T U V W X Y Z

Blackfield - Oxygen tab

Intro / Verse / Outro:

|-----------------------------------------------------------------|
|------0-----0---0-----0-----0-------0-----0---0-----0-----0---0--|
|----8-----8---------8-----4---4---6-----6---------6-----6--------|
|--6-----6-----6---6-----2-------4-----4-----4---4-----4-----4----|
|-----------------------------------------------------------------|
|-----------------------------------------------------------------|


-----------------------------------------------------------------------|
------0-----0---0------0------0---0------0------0---0-----0-----0---0--|
----8-----8---------11-----11---------11-----11---------9-----9--------|
--6-----6-----6---9------9------9---8------8------8---6-----6-----9----|
-----------------------------------------------------------------------|
-----------------------------------------------------------------------|



Chorus:

|-------14-------14----14-------12-------12----12-------14-------14----14-------12-------12----12-|
|----12-------12-------------12-------12-------------12-------12-------------12-------12----------|
|-12-------12-------12----12-------12-------12----12-------12-------12----12-------12-------12----|
|-------------------------------------------------------------------------------------------------|
|-------------------------------------------------------------------------------------------------|
|-------------------------------------------------------------------------------------------------|


-------14-------14----14-------12-------12----12-------14-------14----14-------12-------12----12-|
----0--------0--------------0--------0--------------0--------0--------------0--------0-----------|
-11-------11-------11----11-------11-------11----11-------11-------11----11-------11-------11----|
-------------------------------------------------------------------------------------------------|
-------------------------------------------------------------------------------------------------|
-------------------------------------------------------------------------------------------------|
Tap to rate this tab
# A B C D E F G H I J K L M N O P Q R S T U V W X Y Z