Song name
# A B C D E F G H I J K L M N O P Q R S T U V W X Y Z

Blackfield - Glass House tab

Due to the complexity of the chords, I post them in tabs format. Enjoy!


Intro:

|-2----3--3----0----2--2----1----1----0----3----1----0----3----1-|
|-3----1--0----1----5--4----1----1----0----4----3----0----4----3-|
|-2----0--0----2----4--4----2----2----0----5----3----0----5----3-|
|-0----0--0----2----4--4----0----0----2----6----3----2----6----3-|
|------x--x----x----2--2---------x----3----x----1----3----x----1-|
|------3--3----2-----------------3---------4--------------4------|

Verse+Chorus:
|-2----3--3----0----2--2----2----3--3----0----2--2----1----1----0----3----1----0----3----1-|
|-3----1--0----1----5--4----3----1--0----1----5--4----1----1----0----4----3----0----4----3-|
|-2----0--0----2----4--4----2----0--0----2----4--4----2----2----0----5----3----0----5----3-|
|-0----0--0----2----4--4----0----0--0----2----4--4----0----0----2----6----3----2----6----3-|
|------x--x----x----2--2---------x--x----x----2--2---------x----3----x----1----3----x----1-|
|------3--3----2-----------------3--3----2-----------------3---------4--------------4------|

Bridge:

|-1----3----1-----1--3----1----3----1-----1--3----0----3----1----0----3----1-|
|-1----4----2-----2--4----1----4----2-----2--4----0----4----3----0----4----3-|
|-1----5----3-----3--5----1----5----3-----3--5----0----5----3----0----5----3-|
|-3----5----3-----3--5----3----5----3-----3--5----2----6----3----2----6----3-|
|-3----3----1-----1--3----3----3----1-----1--3----3----x----1----3----x----1-|
|-1-----------------------1----------------------------4--------------4------|

Instrumental:

|-2----3--3----0----2--2----2----3--3----0----2--2-|
|-3----1--0----1----5--4----3----1--0----1----5--4-|
|-2----0--0----2----4--4----2----0--0----2----4--4-|
|-0----0--0----2----4--4----0----0--0----2----4--4-|
|------x--x----x----2--2---------x--x----x----2--2-|
|------3--3----2-----------------3--3----2---------|

Outro:

|-2----3--3----0----2--2----1----1----0----3----1----0----3----1-|
|-3----1--0----1----5--4----1----1----0----4----3----0----4----3-|
|-2----0--0----2----4--4----2----2----0----5----3----0----5----3-|
|-0----0--0----2----4--4----0----0----2----6----3----2----6----3-|
|------x--x----x----2--2---------x----3----x----1----3----x----1-|
|------3--3----2-----------------3---------4--------------4------|
Tap to rate this tab
# A B C D E F G H I J K L M N O P Q R S T U V W X Y Z