Song name
# A B C D E F G H I J K L M N O P Q R S T U V W X Y Z

Blackfield - Summer tab

                                       Artist - Blackfield
                                      *********************
                                          Song - Summer
                                         ***************
                                        Album - Blackfield
                                       ********************


Someone has already done the chords for this song, 
This is just the solo.
----------------------------------------------------
02:14
[--------------------------|----------------|--br-------h--]
[----------------------h---|--rb------------|-10-8---8-8-9-]
[---------------h---9-9-11-|-11--9--9-11-11-|------9-------]
[----------s---9-11--------|----------------|--------------]
[----h--7-9\11-------------|----------------|--------------]
[-9-7-9--------------------|----------------|--------------]


[--------------------------|---------------------h-------------]
[--h-----------------------|-------------15----15-17---------b-]
[-7-9---------------s------|----11-12-14----14-------13-13--12-]
[-----9-7-6---6-7-9-\12-12-|-12--------------------------------]
[-----------7--------------|-----------------------------------]
[--------------------------|-----------------------------------]

               p
[-------|----17-14-------------------------------------|---------------]
[----15-|----------15----17-15---s---15------s---------|---------------]
[-14----|-14----------14-------14\12----14-12\11-------|--h------------]
[-------|----------------------------------------12-12-|-7-9-7---------]
[-------|----------------------------------------------|-------10-9----]
[-------|----------------------------------------------|------------10-]
Tap to rate this tab
 
# A B C D E F G H I J K L M N O P Q R S T U V W X Y Z