Song name
# A B C D E F G H I J K L M N O P Q R S T U V W X Y Z

Blackfield - Kissed By The Devil tab

                                          Artist - Blackfield
                                         *********************
                                       Song - Kissed By The Devil 
                                      ****************************
                                              Album - IV
                                             ************
                                         Tabbed By - Ayreon77
                                        **********************




VERSE 1
********
[-----------------------------|-----------]
[-----------------------------|-----------]
[-----5-7-8-7-5-7-----8-8-7-5-|---5---5---]
[-7-7-------------7-6---------|-7---7---7-]
[-----------------------------|-----------]
[-----------------------------|-----------]X2

Am             
  I think it's over now
Ab
We always knew
Am
The butterflies have gone
Ab
  I get so cruel


----------------------------------
CHORUS
*******
[--------------------|--------------|---------|-----------------]
[--------------------|--------------|---------|-----------------]
[---8-8-7-5--8-8-7-5-|--7-7-5-------|-7-7-5---|-----5-------5---]
[-7------------------|--------8-5-8-|-------8-|-8-8---5-8-8---5-]
[--------------------|--------------|---------|-----------------]
[--------------------|--------------|---------|-----------------]

Ab
Some sorry lover  

Kissed the devil
                    Gm
And was speaking of you
     Dm
It's easy to get lost
                   Cm
And to be found by you

----------------------------------
Gm Ab Gm Ab
----------------------------------

VERSE 2
********
[-----------------------------|-----------]
[-----------------------------|-----------]
[-----5-7-8-7-5-7-----8-8-7-5-|---5---5---]
[-7-7-------------7-6---------|-7---7---7-]
[-----------------------------|-----------]
[-----------------------------|-----------]X2
Am
  I think it's over now
Ab
We always knew
Am 
The butterflies have flown
Ab
  You get so cruel

----------------------------------
CHORUS
*******
[--------------------|--------------|---------|-----------------]
[--------------------|--------------|---------|-----------------]
[---8-8-7-5--8-8-7-5-|--7-7-5-------|-7-7-5---|-----5-------5---]
[-7------------------|--------8-5-8-|-------8-|-8-8---5-8-8---5-]
[--------------------|--------------|---------|-----------------]
[--------------------|--------------|---------|-----------------]
Ab
Give me back now, 

Give me back what 
                Gm
I was giving to you
    Dm
You left me at the crime scene 
          Cm
Heavy and blue

----------------------------------
BRIDGE
******* 
 00:58
[---------s--|---s---br---|---------s--|---s---br---]
[-13-12-10\5-|-5-\7--7----|-13-12-10\5-|-5-\7--7----]
[------------|----------7-|------------|----------7-]
[------------|------------|------------|------------]
[------------|------------|------------|------------]
[------------|------------|------------|------------]

Am                   Bm
When she goes away I think of her
    Am                   Bm
But when she goes away I think of her

----------------------------------
VERSE 3
********
[-----------------------------|-----------]
[-----------------------------|-----------]
[-----5-7-8-7-5-7-----8-8-7-5-|---5---5---]
[-7-7-------------7-6---------|-7---7---7-]
[-----------------------------|-----------]
[-----------------------------|-----------]X2
Am
  I think it's over now
Ab
We always knew
Am
The butterflies have gone
Ab
  We get so cruel

----------------------------------
CHORUS
*******
[--------------------|--------------|---------|-----------------]
[--------------------|--------------|---------|-----------------]
[---8-8-7-5--8-8-7-5-|--7-7-5-------|-7-7-5---|-----5-------5---]
[-7------------------|--------8-5-8-|-------8-|-8-8---5-8-8---5-]
[--------------------|--------------|---------|-----------------]
[--------------------|--------------|---------|-----------------]
Ab
Some sorry lover 

Kissed the devil
                    Gm
And was speaking of you
     Dm
It's easy to be lost
                   Cm
And to be found by you

----------------------------------
Gm Ab Gm Ab X2
----------------------------------

BRIDGE
*******
[---------s--|---s---br---|---------s--|---s---br---]
[-13-12-10\5-|-5-\7--7----|-13-12-10\5-|-5-\7--7----]
[------------|----------7-|------------|----------7-]
[------------|------------|------------|------------]
[------------|------------|------------|------------]
[------------|------------|------------|------------] 
Am                   Bm
When she goes away I think of her
    Am                   Bm
But when she goes away I think of her


Am Bm Am Bm


Fade Out....



Enjoy..........
Tap to rate this tab
# A B C D E F G H I J K L M N O P Q R S T U V W X Y Z