Song name
# A B C D E F G H I J K L M N O P Q R S T U V W X Y Z

Blackfield - 1000 People tab

Song: 1,000 People
Artist: Blackfield
Album: Blackfield II (2007)

Tabbed by Open Mind

Intro:

    Cm                         Eb
e||--------------------------|--------------------------|
B||--4-----3-----------1-----|--4-----3-----------1-----|
G||-----0-----0--3--0-----0--|-----0-----0--3--0-----0--|
D||--------------------------|--------------------------|
A||--------------------------|--------------------------|
E||--------------------------|--------------------------|
    Bb                         Gm
e||--------------------------|--------------------------|
B||--3-----1-----------1-----|--4-----3-----------1-----|
G||--------------3-----------|-----0-----0--3--0-----0--|
D||-----3-----3-----3-----3--|--------------------------|
A||--------------------------|--------------------------|
E||--------------------------|--------------------------|


Cm
A thousand people yell
Eb
Shouting my name
Bb
But I wanna die in this moment
Gm
I wanna die

Cm
And a thousand people smile
Eb
Smiling at me
Bb
But I wanna die in this moment
Gm
I wanna die

Abm
No way to understand
Abm                     Bm
Why I've become the way I am
F#m                          Bm
When the sky is filled with stars
Esus4                    E
I find a place inside my heart
Tap to rate this tab
 
# A B C D E F G H I J K L M N O P Q R S T U V W X Y Z